Black Rebel Motorcycle Club - Feel It Now tab

Intro:
F#  C#  G# (2x)


Verse 1:
F#           C#        G# 
  And all my sorrows awaken
F#           C#        G# 
  And all my fears run down
F#          C#          G#
  I turn myself into an angel
F#         C#           G#
  I run myself into the ground


Chorus 1:
    A#m   G#       F#        C#      G#
I'm on my own, I'm sure I'll feel it now
I'm on my own, I'm sure I'll know it now


Verse 2: 
F#            C#         G#
  And all the reasons invading
F#          C#             G#
  Twist and turn my aching soul
F#           C#            G#
  I leave myself behind in pieces
F#              C#                 G#
  I know you'll need them when I'm gone


Chorus 2:
    A#m   G#       F#        C#      G#
I'm on my own, I'm sure I'll know it now
I'm on my own, I'm sure I'll feel it now


Interlude: 
D#
  I'll never see again
  I'll never see again
    G#        F#        C#      G#
The worst has come I've falling in 
(2x)


Chorus 3:
    A#m   G#       F#        C#      G#
I'm on my own, I'm sure I'll feel it now
I'm on my own, I'm sure I'll know it now 
I'm on my own, I'm sure I'll feel it now
I'm on my own, I'm sure I'll know it now 


**slide guitar**

Verse 2 (1:00)
e|---------------|-------------|-----------------|-------------| 
B|---------------|-------------|-----------------|-------------| 
G|----------6\5--|--5\3--------|------------6\5--|--5/3--------| 
D|--6/8--6-------|-------6--6--|--6\4--4/6-------|-------6--6--| 
A|---------------|-------------|-----------------|-------------| 
E|---------------|-------------|-----------------|-------------|

Chorus 2 (1:27)
e|-------------------|
B|-----------6/9-----|
G|-----5--6-------8--|
D|--8----------------| 2x
A|-------------------|
E|-------------------|

Interlude (1:47)
e|------------------------------------|
B|------------------------------------|
G|--5\3----5\3----3/5--5\3--3\1--1/5--|
D|------------------------------------| 2x
A|------------------------------------|
E|------------------------------------|

Chorus 3 (2:13)
e|-----------------|      e|---------------------|
B|-----------------|      B|-----------6/9\6-----|
G|-----5--6-----8--|      G|-----5--6---------8--|
D|--8--------6-----| 2x   D|--8------------------| 2x
A|-----------------|      A|---------------------|
E|-----------------|      E|---------------------|
Tap to rate this tab
 
# A B C D E F G H I J K L M N O P Q R S T U V W X Y Z