Guitaretab - guitar tabs
Song name
# A B C D E F G H I J K L M N O P Q R S T U V W X Y Z

Black Rebel Motorcycle Club - Am I Only tab

Black Rebel Motorcycle Club - Am I Only
---------------------------------------

OPEN E !!!

Nothing seems to show
The feelings come and go
And everything’s so strange
The people never change

Am I only, only one of you
Am I only, only one of you

Emotions never known
They talk though what you show
So easy you let go
What’s left is torn and thrown

Am I only, only one of you
Am I only, only one of you


  E|------------------------|
  B|------------------------|
  E|------------------------|
  D|------9-----------------|
 G#|------8-----------------|
  E|------------------------|

  E|------------------------|
  B|------------------------|
  E|------------------------|
  D|------2-----------------|
 G#|------3-----------------|
  E|------------------------|
[ Tab from: http://www.guitaretab.com/b/black-rebel-motorcycle-club/182836.html ]
  E|------------------------|
  B|------------------------|
  E|------------------------|
  D|------1-----------------|
 G#|------------------------|
  E|------------------------|

Bridge

  E|------------------------|
  B|------------------------|
  E|------7-----------------|
  D|------9-----------------|
 G#|------8-----------------|
  E|------------------------|

  E|------------------------|
  B|------------------------|
  E|------8-----------------|
  D|------10----------------|
 G#|------------------------|
  E|------------------------|

  E|------------------------|
  B|------------------------|
  E|------11----------------|
  D|------13----------------|
 G#|------------------------|
  E|------------------------|

You turn into a song
And everything feels wrong
There’s so much more to see
But lost is meant to be

Am I only, only one of you
Am I the lonely, only one of you

################
Added by Woytas#
################
Related for Am I Only tab
Am I Only chords by Black Rebel Motorcycle Club