Song name
# A B C D E F G H I J K L M N O P Q R S T U V W X Y Z

Black Sabbath - Electric Funeral tab

Artist:Black Sabbath
Album:Paranoid
Song:ELectric Funeral
Tabbed By: Guitarskater55

Intro
|---------------------------|
|---------------------------|
|---------------------------| x4
|-----10h11-10v-------------|
|-8-8-----------8-10h11-10v-|
|---------------------------|

Verse 1
|----------------------|
|----------------------|
|----------------------| x8
|---------10v-9-9------|
|-8-8-8-8---------11v--|
|----------------------|
|Reflex in the sky|              |warn you you're gonna die|
|Storm coming you'd better hide| |from the atomic tide|
|Flashes in the sky|             |turns houses into sties|
|Turns people into clay|         |radiation minds decay|

Bridge
|---------------------------|
|---------------------------|
|---------------------------| x4
|-----10h11-10v-------------|
|-8-8-----------8-10h11-10v-|
|---------------------------|

Verse 2
|----------------------|
|----------------------|
|----------------------| x8
|---------10v-9-9------|
|-8-8-8-8---------11v--|
|----------------------|
|Robot minds of robot slaves|  |lead them to atomic rage|
|plastic flowers, melting sun| |fading moon falls upon|
|dying world of radiation|     |victims of mad frustration|
|Burning globe of oxy'n fire|  |like electric funeral pyre|

Bridge
|---------------------------|
|---------------------------|
|---------------------------| x4
|-----10h11-10v-------------|
|-8-8-----------8-10h11-10v-|
|---------------------------|

|--------------|
|--------------|
|--------------|
|--------------|
|-8-let ring---|
|--------------|

|--------|
|--------|
|--------|
|-10-9-8-| x5
|-8--7-6-|
|--------|

|----------12-12-12-|
|----------12-12-12-|
|----------12-12-12-| x4
|-10-8-10-----------|
|-8--6-8------------|
|-------------------|

|------------------------------|
|----9-11-9-13----9-11-12-11-9-|
|-10-----------10--------------| x2
|------------------------------| 
|------------------------------|
|------------------------------|
|Buildings crashing down to a cracking ground|
|Rivers turn to wood, ice melting to flood|

|----------12-12-12-|
|----------12-12-12-|
|----------12-12-12-| x4
|-10-8-10-----------|
|-8--6-8------------|
|-------------------|

|------------------------------|
|----9-11-9-13----9-11-12-11-9-|
|-10-----------10--------------| x2
|------------------------------| 
|------------------------------|
|------------------------------|
|Earth lies in death bed, clouds cry water dead|
|Tearing life away, here's the burning pay|

|-13-13-13-16-|     Electric Funeral
|-------------|     Electric Funeral
|-------------| x4  Electric Funeral
|-------------|     Electric Funeral
|-------------|
|-------------|

|-----------|
|-----------|
|-7-7-7-(9)-| x3    On the last one let the 9 ring
|-----------|
|-----------|
|-----------|

|---------------------------|
|---------------------------|
|---------------------------| x4
|-----10h11-10v-------------|
|-8-8-----------8-10h11-10v-|
|---------------------------|

Verse 3
|----------------------|
|----------------------|
|----------------------| x8
|---------10v-9-9------|
|-8-8-8-8---------11v--|
|----------------------|
|And so in the sky|              |shines the electric eye|
|supernatural king takes|        |earth under his wing|
|Heaven's golden chorus sings|   |Hell's angels flap their wings|
|Evil souls fall to Hell|        |ever trapped in burning cells!|

Outro
|---------------------------|
|---------------------------|
|---------------------------| x4
|-----10h11-10v-------------|
|-8-8-----------8-10h11-10v-|
|---------------------------|

|----------------------|
|----------------------|
|----------------------| x8 or until fade
|---------10v-9-9------|
|-8-8-8-8---------11v--|
|----------------------|
Tap to rate this tab
 
# A B C D E F G H I J K L M N O P Q R S T U V W X Y Z