Song name
# A B C D E F G H I J K L M N O P Q R S T U V W X Y Z

Black Stone Cherry - White Trash Millionaire tab

White Trash Millionaire

Tuning: Drop B
B F# B E G# C#

Album: Between The Devil And The Deep Blue Sea

Key: p - Pull Off
     * - Pinched Harmonic
     B - Bend

Intro
C#|-----------------------------------------------------------------------|
G#|-----------------------------------------------------------------------|
E |---------------------------------------------------------5-------------|
B |---------------------------------------------------------5-5-3---------|
F#|-0-0-0-0--0-----5p3-----0------5p3--------0-----5p3------3-5-3-5b6-----|
B |-0-0-0-0--0-5-3-----5-3-0--5-3-----5-3*---0-5-3-----5-3----5-3-5b6-3-3-|

Verse
C#|-----------|
G#|-----------|
E |-----------|
B |-3-5-3-5-0-|
F#|-3-5-3-5-0-|
B |-3-5-3-5-0-| (x4)

Chorus
C#|-----------------------------------------------------------------------|
G#|-3---------------------------------------------------------------------|
E |-2------------5--------------------------------------------5-----------|
B |-0-(let Ring)-5-(let Ring)-5--------------3--------------0-5-0-5-------|
F#|-0------------3------------5-(let Ring)---3-(let Ring)---0-3-0-5-------|
B |-0-------------------------5--------------3--------------0---0-5-------|

C#|-----------------------------------------------------------------------|
G#|-3---------------------------------------------------------------------|
E |-2------------5--------------------------------------------------------|
B |-0-(let Ring)-5-(let Ring)-5--------------3----------------------------|
F#|-0------------3------------5-(let Ring)---3-(let Ring)-----------------|
B |-0-------------------------5--------------3----------------------------|

Back To Intro Riff
C#|-----------------------------------------------------------------------|
G#|-----------------------------------------------------------------------|
E |-----------------------------------------------5-----------------------|
B |-----------------------------------------------5-5-3-------------------|
F#|0-5-3-5p3-----0--5-3-5p3--------0-5-3-5p3------3-5-3-5b6-3-3-----------|
B |0-5-3-----5-3-0--5-3-----5-3*---0-5-3-----5-3----5-3-5b6-3-3-----------|

Verse
C#|-----------|
G#|-----------|
E |-----------|
B |-3-5-3-5-0-|
F#|-3-5-3-5-0-|
B |-3-5-3-5-0-| (x4)

Chorus
C#|-----------------------------------------------------------------------|
G#|-3---------------------------------------------------------------------|
E |-2------------5--------------------------------------------5-----------|
B |-0-(let Ring)-5-(let Ring)-5--------------3--------------0-5-0-5-------|
F#|-0------------3------------5-(let Ring)---3-(let Ring)---0-3-0-5-------|
B |-0-------------------------5--------------3--------------0---0-5-------|

C#|-----------------------------------------------------------------------|
G#|-3---------------------------------------------------------------------|
E |-2------------5--------------------------------------------------------|
B |-0-(let Ring)-5-(let Ring)-5--------------3----------------------------|
F#|-0------------3------------5-(let Ring)---3-(let Ring)-----------------|
B |-0-------------------------5--------------3----------------------------|

I donít know the solo but it is played in the B minor pentatonic scale.
I think this is played during the solo and the part once the solo has finished.

Solo Backing

C#|-----|
G#|-----|
E |-5-7-|
B |-5-7-|
F#|-3-5-|
B |-----|

Chorus (x2)

C#|-----------------------------------------------------------------------|
G#|-3---------------------------------------------------------------------|
E |-2------------5--------------------------------------------5-----------|
B |-0-(let Ring)-5-(let Ring)-5--------------3--------------0-5-0-5-------|
F#|-0------------3------------5-(let Ring)---3-(let Ring)---0-3-0-5-------|
B |-0-------------------------5--------------3--------------0---0-5-------|

C#|-----------------------------------------------------------------------|
G#|-3---------------------------------------------------------------------|
E |-2------------5--------------------------------------------------------|
B |-0-(let Ring)-5-(let Ring)-5--------------3----------------------------|
F#|-0------------3------------5-(let Ring)---3-(let Ring)-----------------|
B |-0-------------------------5--------------3----------------------------|


Back to Intro Riff
C#|-----------------------------------------------------------------------|
G#|-----------------------------------------------------------------------|
E |-----------------------------------------------5-----------------------|
B |-----------------------------------------------5-5-3-------------------|
F#|0-5-3-5p3-----0--5-3-5p3--------0-5-3-5p3------3-5-3-5b6-3-3-----------|
B |0-5-3-----5-3-0--5-3-----5-3*---0-5-3-----5-3----5-3-5b6-3-3-----------|

Outro

C#|---|
G#|---|
E |---|
B |-0-|
F#|-0-| (x5)
B |-0-| 

If there is anything wrong with the tab message me so I can change it. Thanks.
Tap to rate this tab
 
# A B C D E F G H I J K L M N O P Q R S T U V W X Y Z