Song name
# A B C D E F G H I J K L M N O P Q R S T U V W X Y Z

Black Stone Cherry - Blame It On The Boom Boom tab

Black Stone Cherry - Blame It On The Boom Boom
from Between The Devil And The Deep Blue Sea



INTRO/MAIN RIFF      x6
D---------------------|
A---------------------|
F---------------------|
C---3-----------------|
F-----5-x-3h5-x-3bh5--|
C---------------------|


NO GUITAR DURING PRE-CHORUS UNTIL 3rd TIME ROUND
D---------------------|
A---------------------|
F---------------------|
C--0-3-5-7-5-3-0---0--|
G----------------3----|
C---------------------|


CHORUS                                                                      x2
D----------------------------------------------------------------------------|
A----------------------------------------------------------------------------|
F-------------------------------------------------------------5-5-5-5--------|
C--12-12-12-12-12-12-12-12--5-5-5-5-5-5-5-5--3-3-3-3-3-3-3-3--5-5-5-5--5--5--|
G--12-12-12-12-12-12-12-12--5-5-5-5-5-5-5-5--3-3-3-3-3-3-3-3--3-3-3-3--5--5--|
C--12-12-12-12-12-12-12-12--5-5-5-5-5-5-5-5--3-3-3-3-3-3-3-3-----------5--5--|


CHORUS cont.
D--------------------------------------------------|
A--------------------------------------------------|
F--------------------------------------------------|
C--7-7-7-7-7-7-7-7--10-10-10-10-10-10-10-10--5--5--|
G--7-7-7-7-7-7-7-7--10-10-10-10-10-10-10-10--5--5--|
C--7-7-7-7-7-7-7-7--10-10-10-10-10-10-10-10--5--5--|

SOLO
D----------------------------------------------------------------------10-13-15b-15b-15b-15-13---|
A13b---13p10-------------------13p10---13p10----13p10----13p10------13-------------------------15|
F------------12br-10-12p10-----------12------12-------12-------12~-------------------------------|
C--------------------------12--------------------------------------------------------------------|
G------------------------------------------------------------------------------------------------|
C------------------------------------------------------------------------------------------------|

Any corrections please comment
Thanks
Tap to rate this tab
 
# A B C D E F G H I J K L M N O P Q R S T U V W X Y Z