Song name
# A B C D E F G H I J K L M N O P Q R S T U V W X Y Z

Black Tide - Warriors Of Time tab

Whats up everybody. This tab only took me about a day so its not too hard.

Sorry I only have the intro I'll try to tab the rest of the song soon.
Any questions or comments hit me up Samsmartin6988@aol.com


(/) Slide Up  (\) Slide Down  (h) Hammer On  (p) Pull Off  ~Vibrato

These are the chords that are played during the acoustic lead part.
E|-2-----|-1-----|-1-----|-0-----|
B|-3-----|-3-----|-1-----|-1-----|
G|-2-----|-3-----|-2-----|-0-----|
D|-0-----|-3-----|-3-----|-2-----|
A|-------|-1-----|-3-----|-3-----|
E|-------|-------|-1-----|-------|

Guitar 1(Acoustic)
E|----------------|----------------------|---------------|---------------------|
B|----------------|----------------------|---------------|-----5/8-6-5h6p5-----|
G|-----7/10-9-7-9-|----------------------|---------------|-----------------5p0-|
D|---7------------|-----7/10-8-7h8p7-----|-----3h5p3-2-3-|---5-----------------|
A|-5--------------|---8--------------8---|---3-----------|-3-------------------|
E|----------------|-6------------------8-|-1-------------|---------------------|

                   0:08
E|----------------|----------------------|---------------|------------------------|
B|----------------|----------------------|---------------|-----5/8-6-5h6p5--------|
G|-----7/10-9-7-9-|----------------------|---------------|-----------------5p0----|   x5
D|---7------------|-----7/10-8-7h8p7-----|-----3h5p3-2-3-|---5--------------------|
A|55--------------|---8--------------8---|---3-----------|-3----------------------|
E|----------------|66------------------8-|-1-------------|------------------------|

Guitar 2(Acoustic) 0:08
E|----------------|----------------------|---------------|-----6-5-3-5p3------|
B|-----8/10-8-6-8-|----------------------|---------------|---------------6p5--|
G|----------------|-----10-9----10p9-----|-----2/3-2-0-2-|--------------------|   x5
D|---7------------|---8------10------10p8|---3-----------|---5----------------|
A|55--------------|----------------------|---------------|-3------------------|
E|----------------|66--------------------|-1-------------|--------------------|

Guitar 3(Acoustic) 0:17
E|-5----------------|---------------------|-----------1-|----------8-|
B|---8-6-8----------|---------------------|-------1--1--|-------5-5--|
G|------------------|-------7-10-9---9-10-|----2-2--2---|----5-5-5---|  x4
D|------------------|---8/10------10------|---3-3-------|-5-5-5------|
A|------------------|--8------------------|--3----------|--3---------|
E|------------------|-6-------------------|-1-----------|------------|


Guitar 4(Electric) 0:43
E|----------------|----------------------|---------------|-8~~~~~~~~~~~-------|
B|-5-6-8--5-6-8---|-5-6-8--5-6-8-6~~~~~~~|-5---5-8-5-8---|--------------------|
G|----------------|----------------------|---5-----------|--------------------|
D|----------------|----------------------|---------------|--------------------|
A|----------------|----------------------|---------------|--------------------|
E|----------------|----------------------|---------------|--------------------|

Woah part  1:01
E|--------|--------|--------|--------|
B|--------|--------|--------|--------|
G|-7------|-3------|--------|-5------|
D|-7------|-3------|-3------|-5------|
A|-5------|-1------|-3------|-3------|
E|--------|--------|-1------|-3------|
Tap to rate this tab
# A B C D E F G H I J K L M N O P Q R S T U V W X Y Z