Song name
# A B C D E F G H I J K L M N O P Q R S T U V W X Y Z

Black Tide - Warriors Of Time tab

Tuning: Drop D
By Preston Powell

Intro

E----------------------------------------------------------------------------|
B-----------------------------------------8-6-5-6-5--------------------------|
G-----10-9-7-9-------------------------------------5-0---10-9-7-9------------|
D----7----------10-8-7-8-7------5-3-2-3-5---------------7-----------10-8-7-8-|
A---5----------8----------8----3-------3--------------55-----------8---------|
D-------------8------------10-3----------------------------------88----------|

E-------------------------------|
B------------------8-6-5-6-5----|
G---------------------------5-0-|
D--------5-3-2-3-3--------------|     (x3)
A--8----3-------3---------------|
D---10-3------------------------|

Woah.....

E-------------------|
B-------------------|
G--7----3---------5-|
D--7----3----3----5-|
A--5----1----3----3-|
D------------3------|


E-----------------------------------------------------------------|
B-----------------------------------------------------------------|
G--7----------------3---------------------------------5--------5--|
D--7----------------3----------------3----------------5--------5--|
A--5-55555555555555-1-11111111111111-3----------------3-333333-3--|
D------------------------------------3-33333333333333-------------|

Main Riff 1

E--------------------------------------------------------------------------|
B--------------------------------------------------------------------------|
G--7-------5-3-2-0-3-2-0---3-------3-2-0-2-0----2--------------------------|
D--7--------------------3--3----------------3-2-2--------------------------|
A--5-55555-----------------1-11111--------------0-00000--------------------|
D-------------------------------------------------------8-7-5-8-7----------|

E-----------------------------|
B-----------------------------|
G--------------------------7--|
D--------------------------7--| (x2)
A------------0-0-1-0-1-3---5--|
D--2-3-5-3-5--5---------------|

Verse Intro?

E-------------------|
B-------------------|
G--7----3---------5-|
D--7----3----3----5-|
A--5----1----3----3-|
D------------3------|

Verse

E-------------------------------------------------------------------------|
B-------------------------------------------------------------------------|
G--7-----------------3-------------------------------------------5--------|(x2)
D--7-------555-7-7p--3-------555-7-7p--3--------10-10-10-8-7h8-7-5--------|
A--5-555555----------1-111111----------3-------------------------3-333333-|
D--------------------------------------3-333333---------------------------|

Woah.....

E-------------------|
B-------------------|
G--7----3---------5-|
D--7----3----3----5-|
A--5----1----3----3-|
D------------3------|

Chorus

E------------------------------------------------------------------------|
B------------------------------------------------------------------------|
G--7-7-------------------------------------------------------------------|(x2)
D--7-7-----3-3-----5-5----------3------------3-3-----5-5---------3-4h5h6-|
A--5-5-555-3-3-----5-5-----3-4-5-3-4-5-5-555-3-3-----5-5----3-4-5--------|
D----------3-3-333-5-5-555-----------0-0-----3-3-333-5-5-555-------------|

Back To Main Riff 1 (x1)

Verse (x3)

Chorus (x2)

Bridge 1

E--------------------------------------------------------------------|
B--------------------------------------------------------------------|
G--7----------------3-----------------2----------------------2--3----|
D--7----------------3-----------------2----------------3--5--2--3----|    (x2)
A--5-55555555555555-1-111111111111111-0-00000000000000-3--5--0--1----|
D------------------------------------------------------3--5----------|

E------------------------------------------------------|
B-----------------------------------------8-6-5h6-5----|
G----10-9-7-9--------------------------------------5-0-|
D---7----------10-8-7h8-7-------5-3-2-3-3--------------|
A--5----------8----------8-----3-------3---------------|
D------------8------------10--3------------------------|

E------------------------------------------------------|
B------------------------------------------------------|
G-----10-9-7-9-----------------------------------------|
D----7-----------10-8-7h8-7-----3-3---3333---3-33--5---|
A--77-----------8----------8----3-3---3333---3-33--5---|
D-------------88------------10--3-3---3333---3-33--5---|

E----------------------------------------------------------------------------|
B----------------------------------------------------------------------------|
G--7-7---------------3-3---------------------------------5-5-----------------|
D--7-7-77-77-77-7-7--3-3-33-33-33-3-3--3-3---------------5-5-55-55-55-55-5-5-|
A--5-5-55-55-55-5-5--1-1-11-11-11-1-1--3-3-33-33-33-3-3--3-3-33-33-33-33-3-3-|
D--------------------------------------3-3-33-33-33-3-3----------------------|

Chorus (x2)

Bridge 2

E------------------------------------------|
B------------------------------------------|
G------------------------------------------|
D---------7-------10---------10--------10--|  (x4)
A--5-8-7h8---8-7h8---8-8-7h8------8-7h8----|
D-----------8-------------------10---------|

E-------------------------------------------------------------------------|
B-------------------------------------------------------------------------|
G-------------------------------------------------------------------------| (x2)
D--2-2-----5-5-----7-7----------5------------5-5-----7-7----------5-6h7h8-|
A--2-2-----5-5-----7-7-----5-6-7-5-6-7-7-777-5-5-----7-7-----5-6-7--------|
D--2-2-222-5-5-555-7-7-777-------------------5-5-555-7-7-777--------------|

Woah.....

E-------------------|
B-------------------|
G--7----3---------5-|
D--7----3----3----5-|
A--5----1----3----3-|
D------------3------|

The rest is just this same progression just a little bit of rhythm thrown in there. you 
be able to find this out, so good luck!

Btw... There is also some rhythm in these tabs that was too hard to convey in tab form, 
use your ears!
Tap to rate this tab
 
# A B C D E F G H I J K L M N O P Q R S T U V W X Y Z