Song name
# A B C D E F G H I J K L M N O P Q R S T U V W X Y Z

Black Tide - Live Fast Die Young tab

Black Tide
"Live Fast, Die Young"
Light From Above

Here is what i think is Live Fast, Die young. I hope its accurate enough, it sounded 
to me.Im not good enough to figure out the solo though.

Intro

E|---------------------------------------------------------------|
B|---------------------------------------------------------------|
G|---------------------------------------------------------------|
D|---5~-----------5--3~----5------5~-----------5--3~----5--------|Repeat (x4)
A|---5~---5-5-5---3--3~----3-0----5~---5-5-5---3--3~----3-0------|
D|---5~---5-5-5----------------3b/5~---5-5-5-----------------3b/-|
          * * *                        * * *
E|-------------|
B|-------------|
G|-------------|
D|---3~---5~---|
A|---3~---3~---|
D|-------------|

Verse

E|-------------------------------------------------------------------------|
B|-------------------------------------------------------------------------|
G|-------------------------------------------------------------------------|
D|---5~-----------------------------------5~------------------3------------|
A|---5~--5-5-5---3-4-5---5-5-5---3~--1~---5~--5-5-5-5-5-----3------3~--1~--|
D|---5~--5-5-5---3-4-5---5-5-5------------5~--5-5-5-5-5---3-----3----------|
         * * *           * * *                * * * * *

E|---------------------------------------------------------------------|
B|---------------------------------------------------------------------|
G|---------------------------------------------------------------------|
D|---0~---0-0-0-0-0-0-0-0-0--------------------------------------------|
A|---0~---0-0-0-0-0-0-0-0-0--3-2-3~\---0-0-0-0-0-----------------------|
D|---0~---0-0-0-0-0-0-0-0-0--3-2-3~\---0-0-0-0-0---/7-6-5-0-5-6-5-3----|

Repeat the verse as needed and use the intro as the chorus, sorry but i have no clue how 
play the solos OR the breakdown SORRY but this is the majority of the song.    enjoy!

Tabbed by: Esteban Wright
Tap to rate this tab
# A B C D E F G H I J K L M N O P Q R S T U V W X Y Z