Song name
# A B C D E F G H I J K L M N O P Q R S T U V W X Y Z

Black Tide - Shockwave tab

Hi, this is shockwave by black tide. If you have any question, message me.
It is in standard B. I got the tab right

------------------------------------------------------------------------|
---------------------------------------------*second time only----------|
--2---------------------------------------------------------------------|
--2---------------------------------------------------------------------|
--0---0--6/5--0--0--5/3--0--0--3/2---0--------6p5p3p0-------------------|
------------------------------------------------------------------------|

use song for how many times

verse:

-----------------------------------------------------------------|
-----------------------------------------------------------------|
-----------------------------------------------------------------|
--5--------------------------------------------------------------|
--3---3--6p5--0--0--5p3--0--0--3p2---0---------------------------|
-----------------------------------------------------------------|


------------------------------------------------------------------|
------------------------------------------------------------------|
------------------------------------------------------------------|
--7---------------------------------------------------------------|
--5---5--6p5--0--0--5p3--0--0--3p2---0-------6p5p3p0--------------|
------------------------------------------------------------------|

check song for timing on the end. It is played like the beginning.


Chorus: the chords are the same the singer vocals. Do the same rhythm as gabriel 
except for the part that sounds like the intro

first chorus:

-------------------------------------------------------|
-------------------------------------------------------|
-------------------------------------------------------|
--5----------------------------------------------------|
--3-xx--5-------7--7--10--10---------------------------|
--------3--xx---5--5--8----8---------------------------|


------------------------------------------------------------|
------------------------------------------------------------|
--3---------------------------------------------------------|
--5---------------------------------------------------------|      X4
--3---3--6p5--0--0--5p3--0--0--3p2---0----------------------|
------------------------------------------------------------|

Interlude:

-------------------10------------------------------------------------------|
-----10---12--13--------10------12-12-12br--10~----------------------------| X3
---------------------------------------------------------------------------|
---------------------------------------------------------------------------|
---------------------------------------------------------------------------|

--17---------17---------17--------------------------------|    seven times in total and end with
----------17---------17-----------------        -----15/--| on E string
------17---------17---------------------------------------|
----------------------------------------------------------|
----------------------------------------------------------|
----------------------------------------------------------|


verse:

-----------------------------------------------------------------|
-----------------------------------------------------------------|
-----------------------------------------------------------------|
--5--------------------------------------------------------------|
--3---3--6p5--0--0--5p3--0--0--3p2---0---------------------------|
-----------------------------------------------------------------|


------------------------------------------------------------------|
------------------------------------------------------------------|
------------------------------------------------------------------|
--7---------------------------------------------------------------|
--5---5--6p5--0--0--5p3--0--0--3p2---0-------6p5p3p0--------------|
------------------------------------------------------------------|


second chorus:

-------------------------------------------------------|
-------------------------------------------------------|
-------------------------------------------------------|
--5----------------------------------------------------|
--3-xx--5-------7--7--10--10---------------------------|
--------3--xx---5--5--8----8---------------------------|


------------------------------------------------------------|
------------------------------------------------------------|
--3---------------------------------------------------------|
--5---------------------------------------------------------|      X4
--3---3--6p5--0--0--5p3--0--0--3p2---0----------------------|
------------------------------------------------------------|


Second interlude:

------------------------|
------------------------|
------------------------|
---------5-----7--------|
---7-7-7---7-7----------|
------------------------|

backing solo: palm mute everything except when you change notes

---------------------------------------------------------------------|
---------------------------------------------------------------------|
---------------------------------------------------------------------|
--2---------------------------------5--------------------------------|
--0---0-0-0-0-0-0-0-0-0-0-0-0-0-0---3---3-3-3-3-3-3-3-3-3-3-3-3-3----|
---------------------------------------------------------------------|

------------------------------------------------------------------------------|
------------------------------------------------------------------------------|
--7------------------8---------7---------2------------------------------- X 2-|
--5---5-5-5-5-5-5----6---6-6---5---5-5---0---0-0-0-0-0-0-0-0-0-0-0-0-0-0------|
------------------------------------------------------------------------------|

Third chorus:it is a little different. At the end of the 4th time, instead of playing 
intro part,play open a chord or g in this tuning

-------------------------------------------------------|
-------------------------------------------------------|
-------------------------------------------------------|
--5----------------------------------------------------|
--3-xx--5-------7--7--10--10---------------------------|
--------3--xx---5--5--8----8---------------------------|


------------------------------------------------------------|
------------------------------------------------------------|
--3---------------------------------------------------------|
--5---------------------------------------------------------|      X
--3---3--6p5--0--0--5p3--0--0--3p2---0----------------------|
------------------------------------------------------------|


-----------------------------------------|
-----------------------------------------|
--------------------------------2--------|
--5-----------------------------2--------|
--3-xx--5-------7--7--10--10----0--------|  fourth time
--------3--xx---5--5--8----8-------------|


Fourth chorus: at the end, go right into the backing solo

-------------------------------------------------------|
-------------------------------------------------------|
-------------------------------------------------------|
--5----------------------------------------------------|
--3-xx--5-------7--7--10--10---------------------------|
--------3--xx---5--5--8----8---------------------------|


------------------------------------------------------------|
------------------------------------------------------------|
--3---------------------------------------------------------|
--5---------------------------------------------------------|      X3
--3---3--6p5--0--0--5p3--0--0--3p2---0----------------------|
------------------------------------------------------------|


-------------------------------------------------------|
-------------------------------------------------------|
-------------------------------------------------------|
--5----------------------------------------------------|  play only this
--3-xx--5-------7--7--10--10---------------------------| on the fourth time and go
--------3--xx---5--5--8----8---------------------------| right into the backing solo


Backing solo:


---------------------------------------------------------------------|
---------------------------------------------------------------------|
---------------------------------------------------------------------|
--2---------------------------------5--------------------------------|
--0---0-0-0-0-0-0-0-0-0-0-0-0-0-0---3---3-3-3-3-3-3-3-3-3-3-3-3-3----|
---------------------------------------------------------------------|

------------------------------------------------------------------------------|
------------------------------------------------------------------------------|
--7------------------8---------7---------2------------------------------- X 2-|
--5---5-5-5-5-5-5----6---6-6---5---5-5---0---0-0-0-0-0-0-0-0-0-0-0-0-0-0------|
------------------------------------------------------------------------------|

and then play the interlude

------------------------|
------------------------|
------------------------|
---------5-----7--------|   X2
---7-7-7---7-7----------|
------------------------|

and the third time is played like this


-------------------------------------------------|
-------------------------------------------------|
------------------------------------------2------|
---------5---------5----------5-----------2------|
---7-7-7---7-7-----3-xx--5----3-xx--5-----0------|
-------------------------3-xx-------3-xx---------|
Tap to rate this tab
# A B C D E F G H I J K L M N O P Q R S T U V W X Y Z