Song name
# A B C D E F G H I J K L M N O P Q R S T U V W X Y Z

Black Veil Brides - Never Give In tab

|-18-14----------14-18-14-19-14----------14-19-14-|
|-------16----16----------------16----16----------|
|----------15----------------------15-------------|
|-------------------------------------------------|
|-------------------------------------------------|
|-------------------------------------------------|

|16-13----------13-16-13-18-13----------13-|
|------14----14----------------15----15----|
|---------13----------------------15-------|
|------------------------------------------|
|------------------------------------------|
|------------------------------------------|

|-18-14----------14-18-14-19-14----------14-19-14-|
|-------16----16----------------16----16----------|
|----------15----------------------16-------------|
|-------------------------------------------------|
|-------------------------------------------------|
|-------------------------------------------------|

|-16-13----------13-16-13-18-13----------13-18-|
|-------14----14----------------15----15-------|
|----------13----------------------15----------|
|----------------------------------------------|
|----------------------------------------------|
|----------------------------------------------|
Tap to rate this tab
 
# A B C D E F G H I J K L M N O P Q R S T U V W X Y Z