Song name
# A B C D E F G H I J K L M N O P Q R S T U V W X Y Z

Black Veil Brides - Carolyn tab

Hi guys! This is the intro of the song Carolyn :) Enjoy

(JINXX GUITAR)
|---------0-------------0------------0------------------------|
|-----0----0-0------0----0-0------0---0-0------0---0----0--0--|
|----0-0----0-0----0-0----0-0----0-0---0-0--------------------|
|---5---5------0--7---0------0--9---0-----0--10--9---4---7----|
|--3-------------5-------------7------------8---7---2---5-----|
|-------------------------------------------------------------|


Play it with ...
b = bend 1/2 tune

(JAKE PITTS GUITAR)
|-------------------------------------------------------------------|
|-8/12~---10~---8~---13-12-7-10-8/12-12~---13--10----13-12-7-8/12~--|
|-------------------------------------------------------------------|
|-------------------------------------------------------------------|
|-------------------------------------------------------------------|
|-------------------------------------------------------------------|

|-------------------------------------------------------------------|
|-8/12~---10~---8~---13-12-7-10-8/12-12~---13--10----13-12-10-12~---|
|-------------------------------------------------------------------|
|-------------------------------------------------------------------|
|-------------------------------------------------------------------|
|-------------------------------------------------------------------|

|------15-14-15-12-15-12-------------|
|-15b--------------------15-17-15-17-|
|------------------------------------|
|------------------------------------|  3x
|------------------------------------|
|------------------------------------|

|-17-14------------------8-12/15~----|
|-------15------------10-------------|
|----------14--------9---------------|
|-------------16\-10-----------------|
|------------------------------------|
|------------------------------------|

I'm not sure if it's exactly what he does, but sounds good! Enjoy!
Tap to rate this tab
 
# A B C D E F G H I J K L M N O P Q R S T U V W X Y Z