Guitaretab - guitar tabs
Song name
# A B C D E F G H I J K L M N O P Q R S T U V W X Y Z

Black Veil Brides - Lost It All tab

Song:   Lost it all
band:   Black Veil Brides
Album:  Wretched and Divine
Tuning: Drop C#



Intro is on piano but you can play these chords behind it
A# G# F# G#

Intro:
---------------------------------------------------|
---------------------------------------------------|
---------------------------------------------------|
-9~~--7~~--5~~--7~~--------------------------------|
-9~~--7~~--5~~--7~~--------------------------------|
-9~~--7~~--5~~--7~~--------------------------------|

Verse is same as intro (0:39-1:13)

Chorus (1:14-1:57)
------------------|
------------------|
------------------|
-7~~--9~~--5~~~---| [x4]
-7~~--9~~--5~~~---|
-7~~--9~~--5~~~---|

Verse 2(distorted) (1:57-2:32)

------------------------------------|
------------------------------------|
------------------------------------|
------5-4-----5-4-----5-4-----5-4---|
--2-2-----2-2-----0-0-----0-0-------|
------------------------------------|
  . .     . .     . .     . .
[ Tab from: http://www.guitaretab.com/b/black-veil-brides/340957.html ]
------------------------------------|
------------------------------------|
------------------------------------|
------5-4-----5-4-----5-4-----5-4---|
------------------0-0-----0-0-------|
--5-5-----5-5-----------------------|
  . .     . .     . .     . .

------------------------------------|
------------------------------------|
------------------------------------|
------5-4-----5-4-----5-4-----5-4---|
--2-2-----2-2-----0-0-----0-0-------|
------------------------------------|
  . .     . .     . .     . .

---------------------------|
---------------------------|
-----------------------2~--|
------5-4-----5-4------2~--|
-----------------------0~--|
--5-5-----5-5--------------|
  . .     . .

Chorus (2:32-3:06)

------------------|
------------------|
------------------|
-7~~--9~~--5~~~---| [x4]
-7~~--9~~--5~~~---|
-7~~--9~~--5~~~---|

After the chorus(3:06)
--------------|
--------------|
-7~~----------|
-7~~----------|
-5~~----------|
--------------|

Violin part (3:07-3:35)

Bridge//Breakdown Part (3:35-5:19)[No solo ^^"]


----------------------|
----------------------|
-7~~~~----------------|
-7~~~~--2~~--5~~------|
-5~~~~--2~~--5~~------|
--------2~~--5~~------|
Related for Lost It All tab
Lost It All chords by Black Veil Brides