Song name
# A B C D E F G H I J K L M N O P Q R S T U V W X Y Z

Black Veil Brides - Perfect Weapon tab

Black Veil Brides  Perfect Weapon
176 bpm
Tuning ( lowest to highest )- C#,G#,C#,F#,A#,D#.
Intro

Guitar 1
e|---------------------------------------------------------------------------|
B|---------------------------------------------------------------------------|
G|---------------------------------------------------------------------------|
D|----7-----------2--5-5-5-3-----7----------2--5-5-5-5------7----------------|
A|--------3h5------------------------3h5-------3-3-3-3-----------3h5-----8---|
E|0-0---------3--------------0-0----------3--------------8-8----------8------|
  . .                        . .                         . .

e|---------------------------------------------------------------------------|
B|---------------------------------------------------------------------------|
G|---------------------------------------------------------------------------|
D|10-10-10-8-----7------------------8-7~-------------------------------------|
A|-------------------3h5-----------------------------------------------------|
E|-----------8-8---------7-5-3-5---------------------------------------------|
             . .

   x3


Verse

Guitar 1
e|---------------------------------------------------------------------------|
B|---------------------------------------------------------------------------|
G|---------------------------------------------------------------------------|
D|0~---3~---10~---/10~-8~-------0------0------0----0--7-5---5--3------3------|
A|0~---3~---8~------------10~---0------0------0----0------7----3------3------|
E|0~---3~---8~------------------0-0000-0-0000-0-00-0-----------3-3333-3------|
....   ....   ..              ....

e|---------------------------------------------------------------------------|
B|---------------------------------------------------------------------------|
G|---------------------------------------------------------------------------|
D|-----3----3--5-7-8-8------8------8----8---8h10p8------7-----7------7----7--|
A|-----3----3--------8------8------8----8----------10p8-7-----7------7----7--|
E|3333-3-33-3--------8-8888-8-8888-8-88-8---------------77777-7-7777-7-77-7--|
  ....   ..           ....   ....   ..               ....   ...    ..

e|---------------------------------------------------------------------------|
B|---------------------------------------------------------------------------|
G|---------------------------------------------------------------------------|
D|7h8p7/5/7-8p7-8/10~--------------------------------------------------------|
A|---------------------------------------------------------------------------|
E|---------------------------------------------------------------------------|


Pre-chorus

Guitar 1
e|---------------------------------------------------------------------------|
B|----------------------------6p5p3------------------------------------------|
G|---------------------------------5p4p2p0-----------------------------------|
D|3-3-3-3-3-3-3-3-5-5-5-5-5-5----------------------7/57/2/3---------77/5/2/3-|
A|1-1-1-1-1-1-1-1-3-3-3-3-3-3------------------------------------------------|
E|-----------------------------------------0-000------------0-000------------|
                                          . ...            . ...
  x2

e|---------------------------------------------------------------------------|
B|---------------------------------------------------------------------------|
G|------------9-10-9-10*-9-10------------------------------------------------|
D|8---3---5------------------------------------------------------------------|
A|8---3---5------------------------------------------------------------------|
E|8---3---5------------------------------------------------------------------|



Chorus

Guitar 1
e|---------------------------------------------------------------------------|
B|---------------------------------------------------------------------------|
G|---------------------------------------------------------------------------|
D|10101010101010101010101010101010-10101010101010101010101010101010-10/------|
A|8-8-8-8-8-8-8-8-8-8-8-8-8-8-8-8---8-8-8-8-8-8-8-8-8-8-8-8-8-8-8-8-10/------|
E|8-8-8-8-8-8-8-8-8-8-8-8-8-8-8-8---7-7-7-7-7-7-7-7-7-7-7-7-7-7-7-7-10/------|


e|---------------------------------------------------------------------------|
B|---------------------------------------------------------------------------|
G|---------------------------------------------------------------------------|
D|--------7----------2--5-5-5-3--------7----------2--5-5-5-5-----------------|
A|------------3h5--------------------------3h5-------3-3-3-3-----------------|
E|----0-0---------3----------------0-0---------3-----------------------------|
      . .                         . .
  x2


Bridge

Guitar 1

e|---------------------------------------------------------------------------|
B|---------------------------------------------------------------------------|
G|---------------------------------------------------------------------------|
D|0------0------0----0-15\---------------------------------------------------|
A|0------0------0----0-15\---------------------------------------------------|
E|0-0000-0-0000-0-00-0-15\---------------------------------------------------|

e|---------------------------------------------------------------------------|
B|---------------------------------------------------------------------------|
G|---------------------------------------------------------------------------|
D|0------0------0----0----------0------0------0----0-------3---5---7---------|
A|0------0------0----0----------0------0------0----0-------3---5---7---------|
E|0-0000-0-0000-0-00-0-5-7-9----0-0000-0-0000-0-00-0-5-7-9-333-555-777-------|
    ....   ....   ..              ....   ....   ..



e|---------------------------------------------------------------------------|
B|---------------------------------------------------------------------------|
G|---------------------------------------------------------------------------|
D|0------0------0----0----------3------3------3------3-----------------------|
A|0------0------0----0----------3------3------3------3--/7-------------------|
E|0-0000-0-0000-0-00-0-3-5-7----3-3333-3-3333-3-3333-3-----------------------|
    ....   ....   ..              ....   ....   ....
  x2


Pre solo

Guitar 1
e|---------------------------------------------------------------------------|
B|------------------------------------------------------------------11-------|
G|-----------------------------------7-------7---7h10--9-------9---9---------|
D|---------------------------------------------------------------------------|
A|5-------5---5h8--7-------7---7h10----8-8-8---------------------------------|
E|--0-0-0---0--------0-0-0---0-----------------------------------------------|
    . . .   .        . . .   .         . . .


Tremolo Picked
e|------------------------------------------------------------------------------|
B|------------------------------------------------------------------------------|
G|10----------7-----------6-----------------------------------------------------|
D|-----------------------------------7~-----------------------------------------|
A|------------------------------------------------------------------------------|
E|------------------------------------------------------------------------------|


e|---------------------------------------------------------13----------------|
B|------------------------------------15----------15----15----17----------17-|
G|7-------7---7h10--9-------9---9h12-----14-14-14----14----------14-14-14----|
D|---------------------------------------------------------------------------|
A|---------------------------------------------------------------------------|
E|---------------------------------------------------------------------------|
    . . .   .         . . .   .

e|---------15----------------14h15p14-12----------12-------------------------|
B|-----17--------------------------------15h14p15----15-14-------------------|
G|-14------------------------------------------------------------------------|
D|------------x7--x3--x5-x2-------------------------------------------------|
A|------------x7--x3--x5-x2-------------------------------------------------|
E|------------x7--x3--x5-x2-------------------------------------------------|


Solo

Guitar 1
e|15p13----13----------------------------------------------------------------|
B|------15----15p13--15p13----13---------------------------------------------|
G|-------------------------14----14p12--14p12----12--------------------------|
D|--------------------------------------------15----15p12--15p12----12-------|
A|---------------------------------------------------------------15----------|
E|---------------------------------------------------------------------------|

e|------------------------------------------------------------------------------|
B|----------------------------------------------10--------10*-------------------|
G|-----------------------------10h12-------10h12--12p10h12----------------------|
D|--------------10h12p10--10h12-----12p1012-------------------------------------|
A|15p12-12-10h12--------12------------------------------------------------------|
E|------------------------------------------------------------------------------|

Tapping Part
Its pretty obvious when this part changes but the tapping pattern is the same throughout
e|---------------------------------------------------------------------------|
B|t18p15p13h15t18p15t18p15p13h15---------------------------------------------|
G|---------------------------------------------------------------------------|
D|---------------------------------------------------------------------------|
A|---------------------------------------------------------------------------|
E|---------------------------------------------------------------------------|

Tremolo Picked
e|12---13---15---13---15-----------------------------------------------------|
B|---------------------------------------------------------------------------|
G|---------------------------------------------------------------------------|
D|---------------------------------------------------------------------------|
A|---------------------------------------------------------------------------|
E|---------------------------------------------------------------------------|

e|15b17-15b17-15b17r15------------13h15p13h15p13h15p13-12h13p12h13p12h13p12--|
B|--------------------15-15--------------------------------------------------|
G|---------------------------------------------------------------------------|
D|---------------------------------------------------------------------------|
A|---------------------------------------------------------------------------|
E|---------------------------------------------------------------------------|

e|---------------------------------------------------------------------------|
B|13h17p13h17p13h17p13-13h15p13h15p13h15-------------------------------------|
G|---------------------------------------14p12h14p12h14p12-------------------|
D|---------------------------------------------------------12h14p12h14p12~---|
A|---------------------------------------------------------------------------|
E|---------------------------------------------------------------------------|

e|---------------------------------------------------------------------------|
B|------------------------------------------------------/15----13--15~-------|
G|12b14-14*~---7h9p7h9p7--9h10p9h10p9--10h12p10h12p10-------14---------------|
D|---------------------------------------------------------------------------|
A|---------------------------------------------------------------------------|
E|---------------------------------------------------------------------------|


Song Layout
Intro
Verse
Pre chorus
Chorus
Verse
Pre chorus
Chorus
Bridge
Pre Solo
Solo
Chorus
Outro (bridge repeated)

************************************
| x/  pick slide
| /   slide up
| \   slide down
| h   hammer-on
| p   pull-off
| ~   let ring
| x   Mute note
| b   Bend
| pb  Pre-bend
| br  Bend release
| pbr Pre-bend release
| brb Bend release bend
| .   Palm mute
| *   Pinch Harmonic
************************************
Tap to rate this tab
# A B C D E F G H I J K L M N O P Q R S T U V W X Y Z