Guitaretab - guitar tabs
Song name
# A B C D E F G H I J K L M N O P Q R S T U V W X Y Z

Black - Let Me Watch You Make Love tab

-------------------------------------------------------------------------------
Let Me Watch You Make Love - Black
-------------------------------------------------------------------------------
Tabbed by:Andrew Lee
Email:andrewandfionnuala@blueyonder.co.uk

I must give credit to Keith Bridge, my old guitar tutor, who originally tabbed this for 
many years ago. The song is just classical guitar and harmonica, with very subdued keyboards.

Youíll need to listen to the song for the precise timing, and one or 2 of the notes 
time round might be slightly different or the timing different.

Please email me any corrections.

Feedback would be appreciated as this is my first tab.

Enjoy.


Tuning:standard

e|--------------------------------|----------0----1-------5-----7-------7----|
B|-------3-4h-3p---3--------------|------3-----3----2---2----6----6---6----6-|
G|---------------5----5\-3-2------|----2---2----------3-------------7--------|
D|--0-----------------------------|-0-------------0-------0-----0-------0----|
A|--------------------------------|------------------------------------------|
E|--------------------------------|------------------------------------------|
                                   A

   *
e|-8--7-5------------------0---1-------5--7-------7----8-7-5-----------------|
B|-6------6---6--------3-----3---2---2-6----6---6---6--6-----6---6-----------|
G|-7--------7--------2---2---------3----------7--------7-------7-------------|
D|-0---------------0-----------0-------0----------0----0---------------------|
A|---------------------------------------------------------------------------|
E|---------------------------------------------------------------------------|
[ Tab from: http://www.guitaretab.com/b/black/192676.html ]
e|---------------------------------------------------------------------------|
B|---------3---------3--------------3-----------3-----------3-----------0----|
G|-----3-----3-----3---2-3------2-----2-----2-----2-----2-----2-----1-----1--|
D|---3---3-------0------------0---0-------0---0-----------0-------2---2------|
A|-1--------------------------------------------------2----------------------|
E|-------------3------------1-----------1-----------0-----------0------------|
  B
e|-------------------------------||-------0---1-------5---7-------8---10-----|
B|-----2-3h-2p-------------------||-------3---3-------6---6-------6---10-----|
G|---2--------2-------2-3-2---2--||-----2---2---2---7---7---7---7---7----10--|
D|--------------2-3-5-------5----||---0-----------0-----------0--------------|
A|-0-----------------------------||------------------------------------------|
E|-------------------------------||------------------------------------------|
                            i	   C
                                      Sometimes I wonder at this shame I hide
                                      Pare away the man and find the worm inside

e|-------12----13-----||-----------------------------------------------------|
B|-------10----10-----||-----------------------------------------------------|
G|----10----10----10--||-----------------------------------------------------|
D|--0-----------------||-----------------------------------------------------|
A|--------------------||-----------------------------------------------------|
E|--------------------||-----------------------------------------------------|
                       D
                Repeat once from C to D then once from B to C


And your mindís unclear, and instinct is a lie
I hear what you say youíd do, and I wish it was true

Then repeat C to D twice and B to C

How can he take you, when you give yourself
All the old lies, just to bind youself

Then you wrap yourself around me, and whisper in my ear
Where is your jealousy, all I feel is fear


e|-----6---6-------6---6-------0---0-------0---0-------7---7-------7---7-----|
B|-----8---8-------8---8-------3---3-------3---3-------9---9-------9---9-----|
G|---7---7---7---7---7---7---2---2---2---2---2---2---9---9---9---9---9---9---|
D|-0-----------0-----------0-----------0-------------------------------------|
A|---------------------------------------------------------------------------|
E|-------------------------------------------------0-----------0-------------|
   I want to hear it,      And I want to see	     Let me watch you make love

e|-------5---------------------------|---------------------------------------|
B|-----5---6--5----------------------|---------------------------------------|
G|---6-----------6-------------------|---------------------------------------|
D|-7---------------7-8--5-7-3-5-3-2--|---------------------------------------|
A|-----------------------------------|---------------------------------------|
E|-----------------------------------|---------------------------------------|
  And imagine that itís me

Then play B to C once until (i)

e|-----6-5---5------------------------------------------------0---0-1-/9--10-|
B|-6-5-----8---6-5-6-5----------------------------------3---3---3---------10-|
G|---------------------7-6-7-6------------------------2---2---------------10-|
D|-----------------------------8-7-8-7-5-3-5-3-2----0----------------------0-|
A|---------------------------------------------------------------------------|
E|---------------------------------------------------------------------------|
									      *
| /  slide up			* arpeggio
| \  slide down
| h  hammer-on
| p  pull-off
===============================================================================
Related for Let Me Watch You Make Love tab