Song name
# A B C D E F G H I J K L M N O P Q R S T U V W X Y Z

Blackberry Smoke - Good One Comin On tab

Good One Comin On
Blackberry Smoke
www.blackberrysmoke.com

sweet_inc


tuning - Standard

intro pt1         pt2
e|--------------|--3-3---------0-0---------2-2----|
B|--------------|--3-3--3------1-1--3------3-3----|
G|------0h2b0---|--0-0--2b0----0-0--2b0----2-2----|
D|--0h2-------2-|--0-0------2--2-2------2--0-0----|
A|--------------|--2-2---------3-3----------------|
E|--------------|--3-3----------------------------|
pt2 cont
e|-----------------------------------------|
B|------0----------------------------------|
G|--2\4---4/2-0---0------0-----------------|
D|--------------2----0h2---4b-2p0----------|
A|--------------------------------2p0------|
E|------------------------------------3----|

verse
e|--3--0--2--3-----------|
B|--3--1--3--3--3--3-----|
G|--0--0--2--0--2b-2b0---|
D|--0--2--0--0-----------|
A|--2--3-----2-----------|
E|--3--------3-----------|

chorus
e|--0-3-2-2--0-3-2-2--0-3-2-0-0-----0--2------|
B|--1-3-3-3--1-3-3-3--1-3-3-0-1-----1--3------|
G|--0-0-2-2--0-0-2-2--0-0-2-1-0-----0--2------|
D|--2-0-0-0--2-0-0-0--2-0-0-2-2-----2--0------|
A|--3-2------3-2------3-2---2-3-----3---------|
E|----3--------3--------3---0-----------------|


solo follows verse chords
Tap to rate this tab
 
# A B C D E F G H I J K L M N O P Q R S T U V W X Y Z