Song name
# A B C D E F G H I J K L M N O P Q R S T U V W X Y Z

Blackberry Smoke - Restless tab

-----------------------------------------------------------------------------
			     Restless - Blackberry Smoke
-----------------------------------------------------------------------------
Tabbed by: Teleman13
Email: shaunrockstele@gmail.com

I didn't put any lead parts(because I'm too lazy to put them in there for now).
Rockin' song and band! Their cd is definitely worth a buy! 

Tuning: Standard

Intro/Verse:
e|--------------------------------------------------------------------------|
B|--------------------------------------------------------------------------|
G|----------------------2--4--2---------------2-2---------------------------|
D|---x--x---------------0--0--0---------------2-2---------------------------|
A|---x--x----2--4--2---------------2--4--2----0-0---------------------------|
E|---x--x----0--0--0---------------0--0--0-----------3b---------------------|

Chorus:
e|--------------------------------------------------------------------------|
B|-----------3-------3------------------------------------------------------|
G|-----------0-------2------------------------------------------------------|
D|---2-------0-------0------------------------------------------------------|
A|---2-------X--------------------------------------------------------------|
E|---0-------3-------------3b-----------------------------------------------|




************************************

| /   slide up
| \   slide down
| h   hammer-on
| p   pull-off
| ~   vibrato
| +   harmonic
| x   Mute note
| b   Bend
| pb  Pre-bend
| br  Bend release
| pbr Pre-bend release
| brb Bend release bend

************************************
Tap to rate this tab
 
# A B C D E F G H I J K L M N O P Q R S T U V W X Y Z