Song name
# A B C D E F G H I J K L M N O P Q R S T U V W X Y Z

Blackfield - Once chords

Highlighted       Show chord diagrams
Intro - Verse:

     A                  D                _
e||-----|-----|      |-----|-----|        | 
B||-----|-----|      |-----|-----|        |   
G||-----|-----| x6   |-----|-----| x2     | x2
D||--7--|--6--|      |--7--|--6--|        |      
A||--7--|--7--|      |--5--|--5--|        |
E||-----|-----|      |-----|-----|       _|


Bridge:

    F#m   D/A
e||--2--|--o--|
B||--2--|--3--|
G||--2--|--2--|
D||--4--|--0--|
A||--4--|--0--|
E||--2--|-----|


Chorus:

     D     A    F#m    E
e||--2--|--0--|--2--|--0--|
B||--3--|--2--|--2--|--0--|
G||--2--|--2--|--2--|--1--|
D||--0--|--2--|--4--|--2--|
A||-----|--0--|--4--|--2--|
E||-----|-----|--2--|--0--|


Ending:

     A           
e||-----|-----|
B||-----|-----|  
G||-----|-----| x6
D||--7--|--6--|   
A||--7--|--7--|
E||--5--|--5--| 
Tap to rate this tab
 
# A B C D E F G H I J K L M N O P Q R S T U V W X Y Z