Guitaretab - guitar tabs
Song name
# A B C D E F G H I J K L M N O P Q R S T U V W X Y Z
Home / B / Bleak / Play tab

Bleak - Play tab

-------------------------------------------------------------------------
PLAY - Bleak
-------------------------------------------------------------------------
Tabbed by: Kengus

Standard tuning

Great song, great band. Period.
Official website: www.bleakmusic.com

INTRO                                     1st part>>|
  D#sus4    D#m          F#sus2      C#/F            D#sus4    D#m
e|-----6----6----6-------------9-----9-----9--------------6----6----6---|
B|---9----9----7--------9----9-----9-----9---------9----9----9----7-----|
G|-8----8----8-----8/10---11----11----10-----10h11----8----8----8-------|
D|----------------------------------------------------------------------|
A|----------------------------------------------------------------------|
E|----------------------------------------------------------------------|
          F#sus2      Bbm/F
e|-------------9-----9-9------------------------------------------------|
B|------9----9-----9---11-----------------------------------------------|
G|-8/10---11----11-----10-----------------------------------------------|
D|--------------------(8)-----------------------------------------------|
A|----------------------------------------------------------------------|
E|----------------------------------------------------------------------|

INTRO
D#sus4     D#m          F#sus2
Here is my part in this play 
                  C#/F
They sleep in the fire 
D#sus4      D#m            F#sus2    Bbm/F
Here in the dark, till the lights go out 

[one guitar plays 1st part of intro x 2, another plays D#m, F#, C# x2]
[ Tab from: http://www.guitaretab.com/b/bleak/169371.html ]
VERSE1
D#m            C# F#
Treat me, with contempt 
         C#
Push me aside then 
D#m              C# F#            C#
Leave me no self-respect, already wrecked 
         D#m          C#  F#
Will you walk by like the rest 
           C#
Iím in the shade, still 
    D#m                C#     F#      Bbm
You talk like itís all thatís left of me 

CHORUS
        B          C#     D#m
Because thatís all that I am to you now 
B      C#         D#m
Thatís all that I am 
        B          C#     Bbm   B
Because thatís all that I am to you all now 
G#m    Bbm
Thatís all 

INTERLUDE 1
e|--------------------------------------------------------|
B|--------------------------------------------------------|
G|-6/8-8-6/8-8-6-6/8-8-6--------6/8-8-6/8-8-6-6/8-8-6-----|
D|-6/8-8-6/8-8-6-6/8-8-6-4-4-4--6/8-8-6/8-8-6-6/8-8-6-4---|
A|-4/6-6-4/6-6-4-4/6-6-4-4-4-4--4/6-6-4/6-6-4-4/6-6-4-4---|
E|-----------------------2-2-2------------------------2---|

VERSE2 (strumming varies)
   D#m
So content to this part 
        F#                    C#
Take it all - youíve got to accept this 
   D#m                           F#      C#
Content with this part, all that you are left with 
    D#m          C# F#
You tell them who I am 
                 C#
Though you donít know me 
   D#m           C#  F#                 Bbm
So tell them all you can, but you donít know me 

CHORUS (same as above)
Because thatís all that I am to you now 
Thatís all that I am 
Because thatís all that, all that I am to you all now 
Thatís all 

INTERLUDE 2 (D#m and C#)
Sometimes... 
Sometimes... 

VERSE3 (one guitar also plays the intro)
            D#m
Sometimes I cry in my world 
            F#                C#
For Iím not much, but itís my own ground 
    D#m                             F#     C#
And my heart is hurt, but sometimes I make no sound coz 

CHORUS (same as above)
Thatís all that I am to you 
Thatís all that I am 
Because thatís all that, all that I am to you 
Thatís all

OUTRO (interlude 1)
========================================================
Related for Play tab