Song name
# A B C D E F G H I J K L M N O P Q R S T U V W X Y Z

Bleak - M tab

Help us improve GuitareTab! Take a short survey!
-------------------------------------------------------------------------
M - Bleak
-------------------------------------------------------------------------
Tabbed by: Kengus

Standard tuning
Capo on fifth fret! Everything is relative to capo!

PRELUDE (harmonics)
e|-----12+--------------12+-----------------------------------12+----------|
B|-----12+----7+--------12+-------7+------------------12+-----12+-------7+-|
G|-----12+----7+--------12+---5+--7+--7+-------12+------------12+----5+-7+-|
D|------------7+------------------7+-----7+--------7+-------------------7+-|
A|-------------------------------------------------------------------------|
E|-12+--------------12+-----------------------------------12+--------------|

e|----------------------12+--------------| (the prelude is played entirely
B|----------------12+--------------------|  with natural harmonics, i.e.
G|-7+------12+--------------7+-----------|  place the tip of your finger
D|----7+-------7+--------------7+--12+---|  above the fret bar as shown,
A|---------------------------------------|  and touch it only very slightly)
E|---------------------------------------|

INTRO
  Em9      *#5 Em9      *#5         Em9      *#5  G       D/F#
e|-------------------------------------------------------------------------|
B|--------3------------3----------3---------3------0h3-3---3-3-------------|
G|------0------------0----------0---------0--------0h4-2p0-2---2---------0-|
D|----4------------4--------0h2---------4------------------------0-0h2h4---|
A|--2-------3----2-------3------------2-------3----------------------------|
E|0------------0--------------------0------------3---------2---------------|
   Em9      *#5 Em9      *#5 Em9      *#5         G        D/F#
e|------------------------------------------------------------------|
B|---------3------------3------------3------------3-3-------3--3----|
G|-------0------------0------------0----------0h2-4---4-2p0-2-----0-|
D|-----4------------4------------4--------0h2-----------------------|
A|---2-------3----2-------3----2-------3----------------------------|
E|-0------------0------------0--------------------3---------2-------|

VERSE PART 1
   Em9      *#5 Em9      *#5 Em9          Am    Asus2  D/F#   Em9      *#5
e|-------------------------------------------------------------------------|
B|---------3------------3------------3----1-----0--------3------------3----|
G|-------0------------0------------0--------2-----2----2------------0------|
D|-----4------------4------------4------------2-----2-------------4--------|
A|---2-------3----2-------3----2-------3--0---------------------2-------3--|
E|-0------------0------------0-------------------------2------0------------|
                                                    VERSE PART 2
   Em9      *#5 Em9      *#5  G       D/F#            Am           C
e|--------------------------------------------------|----------------------|
B|---------3------------3-----0h3-3---3-3-----------|---------0h2----------|
G|-------0------------0-------0h4-2p0-2---------0h2-|-----2-------------0--|
D|-----4------------4---------------------0h2h4-----|---2---2--------0h2---|
A|---2-------3----2-------3-------------------------|-0------------3-------|
E|-0------------0-------------3-------2-------------|----------------------|
              Em9        Em          Am           C                 Em
e|-------------------------------------------------------------------------|
B|-1-----0------------3--0--0----------------0h2---------1-----0-----------|
G|---0-----0--------0----0-----2-4-------2-------------0---0-----0------0--|
D|-----2----------4------1-----4-4-----2---2--------0h2------2--------1----|
A|--------------2--------------------0------------3------------------------|
E|------------0----------0------------------------------------------0------|
        D/F#          Am           C                  G          Em9
e|---0----0----------------------------------------------------------------|
B|-0----3---3-----------------0h2----------1-----0------------3------------|
G|------2-------2---------2--------------0---0-----0--------0------0-------|
D|----------------0-----2---2--------0h2-------2----------0------4---------|
A|--------------------0------------3--------------------2------------2-----|
E|------2-----2---------------------------------------3----------0---------|
   Cadd9         Dadd4
e|------------------|
B|--------3------3--|  Verse part 2 continues straight into interlude, which
G|------0---0----0--|  starts off same as Intro, but then changes
D|---0h2------2--4--|
A|-3-------------5--|
E|------------------|

INTERLUDE
  Em9      *#5 Em9      *#5         Em9      *#5  G       D/F#
e|-------------------------------------------------------------------------|
B|--------3------------3----------3---------3------0h3-3---3-3-------------|
G|------0------------0----------0---------0--------0h4-2p0-2---2---------0-|
D|----4------------4--------0h2---------4------------------------0-0h2h4---|
A|--2-------3----2-------3------------2-------3----------------------------|
E|0------------0--------------------0------------3---------2---------------|
   Em9      *#5              Em9      *#5 Em9      *#5
e|---------------3---2p0---0---------------------------|
B|---------3-----3-3-----3-3---------3------------3----|
G|-------0-------------------------0------------0------|
D|-----4-------------------------4-----4------4--------|
A|---2-------3-----------------2-------3----2-------3--|
E|-0-------------------------0------------0------------|

[http://profile.ultimate-guitar.com/kengus/]

PRELUDE

INTRO

VERSE PT 1
I can see your smile, see it light up in your eyes
And you saw my life, born in mine
As I turn away from the memory we became
I am wondering what the hell went wrong

VERSE PT 2
With every minute I loved you
Every minute I loved you
Every minute I'm losing you
Each moment I loved you

INTERLUDE

PRE-CHORUS (strumming starts gradually from here)
        A7sus2  Fadd9     C           G                   A7sus2 = x02203
When you came to me, you spoke to my soul                  Fadd9 = xx3213
       Am7         Fadd9  Dm7            G                     C = x32013
That I gave you to keep, with you I was home                   G = 320033
    Am         F                 C           G               Am7 = x02013
I believed in love that could not believe in me              Dm7 = xx0211
       Am    F         Gsus4        G    D...                 Am = x02210
Didn't even know how alone I would feel                        F = 133211
                                                           Gsus4 = 330033
                                                               D = xx0232
CHORUS (strum the chords)
     ...Em      C        G         D/F#                       Em = 022000
I can't feel my heart, untouch me away                         C = x32010
            Em      C             Am7           D              G = 320033
I'm running in my thoughts, there ain't much in me          D/F# = 200232
         Em         C                 G          Bm          Am7 = x02013
With the wreath you laid in the stream, you were gone          D = xx0232
         Em        C         Am7            D                 Bm = x24432
The last breath I take, I'll sing with this song       Dadd4add9 = x54030
   C  Dadd4add9  Em7  Em     C  Dadd4add9  Em7  Em           Em7 = 022030
For you

OUTRO
      C  Dadd4add9  Em7  Em
And I came back
          C  Dadd4add9  Em7  Em
And I came back
            C  Dadd4add9  Em7  Em
You were gone
            C  Dadd4add9  Em7  Em
You were gone
          G  D  Em  D     G  D  Cadd9    G  D  Em   C Dadd4add9  Em
You were gone.

(guitar plays around in the end)

=========================================================================
Related for M tab