Song name
# A B C D E F G H I J K L M N O P Q R S T U V W X Y Z

Bled - Nothing We Say Leaves This Room Tune From The Site tab

litte tune on the site also on nothing we say leaves this room

d---------0-------------0--------|
a--------------------------------|
F-16-17---17-16-17---17----------|
c--------------------------------| 2x
g--------------------------------|
d--------------------------------|

d-------19------19-------19---15-----15-----15--------|
a-----0--------0--------0-----0------0--------0-------|
F-17-------17------17----17-----17------17------------|
c-----------------------------------------------------|
g-----------------------------------------------------|
d-----------------------------------------------------|
Tap to rate this tab
 
# A B C D E F G H I J K L M N O P Q R S T U V W X Y Z