Blessthefall - Hey Baby Heres That Song You Wanted tab

===========================================================================
         Hey Baby, Here's That Song You Wanted By Blessthefall
===========================================================================
Tuning- Drop D

| p = Pull-off 
| h = Hammer-on
| ~ = Sustain
| . = Palm mute 
| b = Bend
| / = slide down neck
~~~~~~~~~~~~~~~~~~~~~~~~~~~~~~~~~~~~~~~~~~~~~~~~~~~~~~~~~~~~~~~~~~~~~~~~~~~~
This tab is correct to my knowledge and ear
~~~~~~~~~~~~~~~~~~~~~~~~~~~~~~~~~~~~~~~~~~~~~~~~~~~~~~~~~~~~~~~~~~~~~~~~~~~~

E|--------------------------------------------------------|
B|--------------------------------------------------------|
G|--10-11-0-6-8-0-11-15-11-13-11-0-10-0-10----------------|
D|--------------------------------------------------------|
A|--------------------------------------------------------|
D|--------------------------------------------------------|


E|--------------------------------------------------------|
B|--------------------------------------------------------|
G|-10-11-0-6-8-0-11-15-11-13-11-0-15p11h15p11h13p11h13p11h|
D|--------------------------------------------------------|
A|--------------------------------------------------------|
D|--------------------------------------------------------|


E|--------------------------------------------------------|
B|--------------------------------------------------------|
G|--10-11-0-6-8-0-11-15-11-13-11-0-10-0-10----------------|
D|--------------------------------------------------------|
A|--------------------------------------------------------|
D|--------------------------------------------------------|


E|--------------------------------------------------------|
B|--------------------------------------------------------|
G|-10-11-0-6-8-0-11-15-11-13-11-0-15p11h15p11h13p11h13p11h|
D|--------------------------------------------------------|
A|--------------------------------------------------------|
D|--------------------------------------------------------|


E|--------------------------------------------------------------|
B|--------------------------------------------------------------|
G|--10-11-0-11-13-0-13-15-0-15-0-0-13-0-13-15-0-----------------|
D|--------------------------------------------------------------|
A|--------------------------------------------------------------|
D|--------------------------------------------------------------|


E|-------------------------------------------------------------|
B|-------------------------------------------------------------|
G|--10-11-0-11-13-0-13-15-0-15-0-0-16-15-13-15-----------------|
D|-------------------------------------------------------------|
A|-------------------------------------------------------------|
D|-------------------------------------------------------------|


E|--------------------------------------------------------|
B|--------------------------------------------------------|
G|--10-11-0-5-8-0-11-15-11-13-11-0-10-0-10-11-------------|
D|--------------------------------------------------------|
A|--------------------------------------------------------|
D|--------------------------------------------------------|


E|--------------------------------------------------------|
B|--------------------------------------------------------|
G|-10-11-0-6-8-0-11-15-11-13-11-0-15p11h15p11h13p11h13p11h|
D|--------------------------------------------------------|
A|--------------------------------------------------------|
D|--------------------------------------------------------|


E|---------------------------------------------------14------|
B|------------------16---------------------16----------------|
G|-------------------------------------------------------14b-|     X7
D|--13--13--13--13-----13--13--13--13--13-----13--13--------|
A|-----------------------------------------------------------|
D|-----------------------------------------------------------|
    .   .   .   .       .   .   .   .   .      .   .


E|-----------------------------------------------------------|
B|-----------------------------------------------------------|
G|--11-11-11-11-11-11-11-11-11-11-11-11-11/------------------|
D|-----------------------------------------------------------|
A|--9--9--9--9--9--9--9--9--9--9--9--9--9/-------------------|
D|-----------------------------------------------------------|


E|--------------------------------------------------------|
B|--------------------------------------------------------|
G|--10-11-0-6-8-0-11-15-11-13-11-0-10-0-10----------------|
D|--------------------------------------------------------|
A|--------------------------------------------------------|
D|--------------------------------------------------------|


E|--------------------------------------------------------|
B|--------------------------------------------------------|
G|-10-11-0-6-8-0-11-15-11-13-11-0-15p11h15p11h13p11h13p11h|
D|--------------------------------------------------------|
A|--------------------------------------------------------|
D|--------------------------------------------------------|


E|--------------------------------------------------------------|
B|--------------------------------------------------------------|
G|--10-11-0-11-13-0-13-15-0-15-0-0-13-0-13-15-0-----------------|
D|--------------------------------------------------------------|
A|--------------------------------------------------------------|
D|--------------------------------------------------------------|


E|-------------------------------------------------------------|
B|-------------------------------------------------------------|
G|--10-11-0-11-13-0-13-15-0-15-0-0-16-15-13-15-----------------|
D|-------------------------------------------------------------|
A|-------------------------------------------------------------|
D|-------------------------------------------------------------|


E|--------------------------------------------------------|
B|--------------------------------------------------------|
G|--10-11-0-5-8-0-11-15-11-13-11-0-10-0-10-11-------------|
D|--------------------------------------------------------|
A|--------------------------------------------------------|
D|--------------------------------------------------------|


E|--------------------------------------------------------|
B|--------------------------------------------------------|
G|-10-11-0-6-8-0-11-15-11-13-11-0-15p11h15p11h13p11h13p11h|
D|--------------------------------------------------------|
A|--------------------------------------------------------|
D|--------------------------------------------------------|


E|---------------------------------------------------14------|
B|------------------16---------------------16----------------|
G|-------------------------------------------------------14b-|     X7
D|--13--13--13--13-----13--13--13--13--13-----13--13--------|
A|-----------------------------------------------------------|
D|-----------------------------------------------------------|
    .   .   .   .       .   .   .   .   .      .   .


E|-----------------------------------------------------------|
B|-----------------------------------------------------------|
G|--11-11-11-11-11-11-11-11-11-11-11-11-11/------------------|
D|-----------------------------------------------------------|
A|--9--9--9--9--9--9--9--9--9--9--9--9--9/-------------------|
D|-----------------------------------------------------------|


E|--------------------------------------------------------|
B|--------------------------------------------------------|
G|--10-11-0-6-8-0-11-15-11-13-11-0-10-0-10----------------|
D|--------------------------------------------------------|
A|--------------------------------------------------------|
D|--------------------------------------------------------|


E|--------------------------------------------------------|
B|--------------------------------------------------------|
G|-10-11-0-6-8-0-11-15-11-13-11-0-15p11h15p11h13p11h13p11h|
D|--------------------------------------------------------|
A|--------------------------------------------------------|
D|--------------------------------------------------------|


E|--------------------------------------------------------------|
B|--------------------------------------------------------------|
G|--10-11-0-11-13-0-13-15-0-15-0-0-13-0-13-15-0-----------------|
D|--------------------------------------------------------------|
A|--------------------------------------------------------------|
D|--------------------------------------------------------------|


E|-------------------------------------------------------------|
B|-------------------------------------------------------------|
G|--10-11-0-11-13-0-13-15-0-15-0-0-16-15-13-15-----------------|
D|-------------------------------------------------------------|
A|-------------------------------------------------------------|
D|-------------------------------------------------------------|


E|--------------------------------------------------------|
B|--------------------------------------------------------|
G|--10-11-0-5-8-0-11-15-11-13-11-0-10-0-10-11-------------|
D|--------------------------------------------------------|
A|--------------------------------------------------------|
D|--------------------------------------------------------|


E|--------------------------------------------------------|
B|--------------------------------------------------------|
G|-10-11-0-6-8-0-11-15-11-13-11-0-15p11h15p11h13p11h13p11h|
D|--------------------------------------------------------|
A|--------------------------------------------------------|
D|--------------------------------------------------------|


E|------------------------------------------------------------------|
B|------------------------------------------------------------------|
G|------------------------------------------------------------------|
D|--9-9-9-9-9-9-9-9-9-9-9-9-9-9-9-9-6-6-6-6-6-6-6-6-6-6-6-6-6-6-6-6-|
A|--9-9-9-9-9-9-9-9-9-9-9-9-9-9-9-9-6-6-6-6-6-6-6-6-6-6-6-6-6-6-6-6-|
D|--9-9-9-9-9-9-9-9-9-9-9-9-9-9-9-9-6-6-6-6-6-6-6-6-6-6-6-6-6-6-6-6-|


E|---------------------------------------------|
B|---------------------------------------------|
G|---------------------------------------------|
D|--------------------------0~~~-0-0~~~-0-0~~~-|
A|--------------------------0~~~-0-0~~~-0-0~~~-|
D|---0--0--0--0--0--0--0--0-0~~~-0-0~~~-0-0~~~-|
     .  .  .  .  .  .  .  .      .      .

E|----------------------------------------------------------------|
B|----------------------------------------------------------------|
G|----------------------------------------------------------------|
D|--------------------------6~~~-6-6~~~-6-8p-4h-8p-4h-------------|    X2
A|---4--4--4--4--4--4--4--4-4~~~-4-4~~~-4-------------8p-4h-8p-4h-|
D|----------------------------------------------------------------|
     .  .  .  .  .  .  .  .      .      .

E|------------------------------------------------------------|
B|------------------------------------------------------------|
G|------------------------------------------------------------|
D|--9-9-9-9-9-9-9-9-9-9-9-9-9-9-9-9-6~~~6~~~6~~~~~0~~~~~~~~~~-|
A|--9-9-9-9-9-9-9-9-9-9-9-9-9-9-9-9-6~~~6~~~6~~~~~0~~~~~~~~~~-|
D|--9-9-9-9-9-9-9-9-9-9-9-9-9-9-9-9-6~~~6~~~6~~~~~0~~~~~~~~~~-|


E|--------------------------|
B|--------------------------|
G|--------------------------|
D|--9~~~~~~~~~~0----------/-|
A|--9~~~~~~~~~~0----------/-|
D|--9~~~~~~~~~~0----------/-|


E|--------------------------------------------------------|
B|--------------------------------------------------------|
G|--10-11-0-6-8-0-11-15-11-13-11-0-10-0-10----------------|
D|--------------------------------------------------------|
A|--------------------------------------------------------|
D|--------------------------------------------------------|


E|--------------------------------------------------------|
B|--------------------------------------------------------|
G|-10-11-0-6-8-0-11-15-11-13-11-0-15p11h15p11h13p11h13p11h|
D|--------------------------------------------------------|
A|--------------------------------------------------------|
D|--------------------------------------------------------|


E|--------------------------------------------------------------|
B|--------------------------------------------------------------|
G|--10-11-0-11-13-0-13-15-0-15-0-0-13-0-13-15-0-----------------|
D|--------------------------------------------------------------|
A|--------------------------------------------------------------|
D|--------------------------------------------------------------|


E|-------------------------------------------------------------|
B|-------------------------------------------------------------|
G|--10-11-0-11-13-0-13-15-0-15-0-0-16-15-13-15-----------------|
D|-------------------------------------------------------------|
A|-------------------------------------------------------------|
D|-------------------------------------------------------------|


E|--------------------------------------------------------|
B|--------------------------------------------------------|
G|--10-11-0-5-8-0-11-15-11-13-11-0-10-0-10-11-------------|
D|--------------------------------------------------------|
A|--------------------------------------------------------|
D|--------------------------------------------------------|


E|--------------------------------------------------------|
B|--------------------------------------------------------|
G|-10-11-0-6-8-0-11-15-11-13-11-0-15p11h15p11h13p11h13p11h|
D|--------------------------------------------------------|
A|--------------------------------------------------------|
D|--------------------------------------------------------|


E|--------------------------------------------------------|
B|--------------------------------------------------------|
G|--10-11-0-6-8-0-11-15-11-13-11-0-10-0-10----------------|
D|--------------------------------------------------------|
A|--------------------------------------------------------|
D|--------------------------------------------------------|


E|--------------------------------------------------------|
B|--------------------------------------------------------|
G|-10-11-0-6-8-0-11-15-11-13-11-0-15p11h15p11h13p11h13p11h|
D|--------------------------------------------------------|
A|--------------------------------------------------------|
D|--------------------------------------------------------|


E|--------------------------------------------------------------|
B|--------------------------------------------------------------|
G|--10-11-0-11-13-0-13-15-0-15-0-0-13-0-13-15-0-----------------|
D|--------------------------------------------------------------|
A|--------------------------------------------------------------|
D|--------------------------------------------------------------|


E|-------------------------------------------------------------|
B|-------------------------------------------------------------|
G|--10-11-0-11-13-0-13-15-0-15-0-0-16-15-13-15-----------------|
D|-------------------------------------------------------------|
A|-------------------------------------------------------------|
D|-------------------------------------------------------------|


E|--------------------------------------------------------|
B|--------------------------------------------------------|
G|--10-11-0-5-8-0-11-15-11-13-11-0-10-0-10-11-------------|
D|--------------------------------------------------------|
A|--------------------------------------------------------|
D|--------------------------------------------------------|


E|---------------------------------------------|
B|---------------------------------------------|
G|--10-11-0-6-8-0-11-15-11~~10~~8~~10~~8~~~~~~-|
D|---------------------------------------------|
A|---------------------------------------------|
D|---------------------------------------------|
Tap to rate this tab
 
# A B C D E F G H I J K L M N O P Q R S T U V W X Y Z