Song name
# A B C D E F G H I J K L M N O P Q R S T U V W X Y Z

Blindsight - Bitch tab

Intro/Verse
---------------------------------------------------------
---------------------------------------------------------
--------------------------------------------------------- x4
---------------------------------------------------------
---3----3----5----5----7----7----7----7------------------
1----1----3----3----5----5----5----5---------------------

Chorus
--------------------------------------------------------
--------------------------------------------------------
--------------------------------------------------------
----33333333----55555555----77777777xx77777777\---------
----33333333----55555555----77777777xx77777777\---------
----11111111----33333333----55555555xx55555555\---------

Solo

--------------------------------------------------------
--------------------------------------------------------
-----12-12-12-12-12-12-12-12----------------------------
--------------------------------------------------------
-----10-10-10-10-10-10-10-10----------------------------
--------------------------------------------------------

--------------------------------------------------------
--------------------------------------------------------
-----14-14-14-14-14-14-14-14----------------------------
--------------------------------------------------------
-----12-12-12-12-12-12-12-12----------------------------
--------------------------------------------------------

--------------------------------------------------------
--------------------------------------------------------
-----16-16-16-16-16-16-16/18--16-16-16-16-16-16/18------
-------------------------------------------------------- x2
-----14-14-14-14-14-14-14/16--14-14-14-14-14-14/16------
--------------------------------------------------------

Intro
Verse
Chorus
Verse
Chorus
Verse
Chorus x2
Solo x2
Chorus
Outro use variation of the chorus
Tap to rate this tab
# A B C D E F G H I J K L M N O P Q R S T U V W X Y Z