Song name
# A B C D E F G H I J K L M N O P Q R S T U V W X Y Z

Blindsight - High tab

Intro/Verse

----------------------------------------------------------
--2-2-2-2---3-3-3-3---0-0-0-0---1-1-1-1-------------------
-0-0-0-0---0-0-0-0---0-0-0-0---0-0-0-0--------------------x2
----------------------------------------------------------
----------------------------------------------------------
----------------------------------------------------------

towards end, start hitting as chords

Chorus

-----------------------------------------------------------
-----------------------------------------------------------
-----------------------------------------------------------
--7-7-7-7-7-7-7-7----11-11-11-11-11-11-11-11---------------
--7-7-7-7-7-7-7-7----11-11-11-11-11-11-11-11---------------
--5-5-5-5-5-5-5-5----9-9-9-9-9-9-9-9-9-9-9-9---------------


-----------------------------------------------------------
-----------------------------------------------------------
-----------------------------------------------------------
--5-5-5-5-5-5-5-5------0-0-0-0-0-0-0-0---------------------
--5-5-5-5-5-5-5-5------0-0-0-0-0-0-0-0---------------------
--3-3-3-3-3-3-3-3------0-0-0-0-0-0-0-0---------------------


Solo

-----------------------------------------------------------
---22222222222222222233333333333333300000000000000111111111
-----------------------------------------------------------
-----------------------------------------------------------
-----------------------------------------------------------
-----------------------------------------------------------

Use Tremelo Picking and listen for timings


Intro
One Chord Verse/Verse
Chorus
Chorus/Verse
Chorus/Solo
Tap to rate this tab
# A B C D E F G H I J K L M N O P Q R S T U V W X Y Z