Song name
# A B C D E F G H I J K L M N O P Q R S T U V W X Y Z

Blink 182 - What Went Wrong Acoustic tab

BAND: BLINK 182
SONG: WHAT WENY WRONG
TABBED BY: MAARTEN PAAUW

capo: 2

E|-5-----------5-----------5-----------5----------|------------------------|
A|------------------------------------------------|-5-----------5----------|
D|----7-----7-----7-----7-----7-----7-----7-----7-|----7-----7-----7-----7-|
G|-------------------6-----------------------6----|-------------------6----|
B|-------5-----------------------5----------------|-------5----------------|
e|------------------------------------------------|------------------------|

E|------------------------|-5-----------5----------------------------------|
A|-5-----------5----------|-------------------------2-----------2----------|
D|----7-----7-----7-----7-|----7-----7-----7-----7-----7-----7-----7-----7-|
G|-------------------6----|-------------------6-----------------------6----|
B|-------5----------------|-------5-----------------------5----------------|
e|------------------------|------------------------------------------------|

E|-------------------------2-2-2-2-|
A|-5-----------5-----------5-5-5-5-|
D|----7-----7-----7-----7--7-7-7-7-|
G|-------6-----------6-----6-6-6-6-|
B|-------------------------5-5-5-5-|
e|-------------------------2-2-2-2-|
Tap to rate this tab
# A B C D E F G H I J K L M N O P Q R S T U V W X Y Z