Song name
# A B C D E F G H I J K L M N O P Q R S T U V W X Y Z

Blink 182 - All The Small Things tab

I know this is correct 100% no doubt about it, don't listen to those other retards who don't know what they're talking about


             intro
|-------------------------------------------
|-------------------------------------------
|--------5----10----------------------------
|-5--3---5-x8-10-x8-5----x-----3-3----------
|-5--3---3----8-----5-x8-x-x4--3-3----------
|-3--1--------------3----x-----1-1----------
              Verse(palm muted)
|-------------------------------------------
|-------------------------------------------
|-5-----------------------------------------
|-5-x8--5----3----5-------------------------
|-3-----5-x8-3-x8-5-x8----------------------
|-------3----1----3-------------------------

         pre -chorus
|-------------------------------------------
|-------------------------------------------
|--5~~~-------------------------------------
|--5~~~---------let ring--------------------say it aint so....
|--3~~~-------------------------------------
|-------------------------------------------
             chorus
|-------------------------------------------
|-------------------------------------------
|--5----------------------------------------
|--5-x16-5-----3----------------------------na na na .....
|--3-----5-x5--3-x7-------------------------
|--------3-----1----------------------------       

             interlude
|--------------------------------------------
|--------------------------------------------
|--5-----10----10----------------------------
|--5-x8--10-x4-10-x4-5-----x-----3--3--------
|--3-----8-----7-----5-x8--x-x4--3--3--------
|--------------------3-----x-----1--1--------

repeat verse

           pre-solo
|---------------------------------------------
|---------------------------------------------
|---5-----------------------------------------
|---5--3--5-----------------------------------
|---3--3--5-----------------------------------
|------1--3-----------------------------------

             solo
|--------------------------------------------
|--------------------------------------------
|----5-5-5-5-5-5-5-5-5-5-5-5-4-4-4-4---------
|-----5-5-5-5-5-5-5-5-5-5-5-5-5-5-5-5--------
|--------------------------------------------
|--------------------------------------------

repeat chorus

           ending
|------------------------------------------------
|------------------------------------------------
|---------------5------------------------------
|--3--x----3----5--------------------------------
|--3--x-x4-3-x2-3------------------------------------
|--1--x----1-----------------------------------

intro x2
verse x4
pre-chorus x1
chorus x2
interlude x1
verse x2
pre-chorus x1
chorus x2
pre-solo x1
solo x3
chorus x4
ending x1
Tap to rate this tab
# A B C D E F G H I J K L M N O P Q R S T U V W X Y Z