Guitaretab - guitar tabs
Song name
# A B C D E F G H I J K L M N O P Q R S T U V W X Y Z

Blink 182 - The Rock Show tab

------------------------------------------------------------------------
                            THE ROCK SHOW - Blink-182
------------------------------------------------------------------------

Tabbed By Dave Budri@msn.com
Tabbed Out on May 3,2001
AOL Instant Messanger: xxswatgovxx

All In Order
A|-----7-5-slide-4-5-4-0----7-5-slide-4-5-4---7-5-slide-4-5-4-0---7-5-slide-4-5-4-|
E|---5--------------------5-----------------5-------------------5-----------------|

  Palm Mute
D|--7-7-7-7-7-7-7-7-7-7-7-7-|
A|--7-7-7-7-7-7-7-7-7-7-7-7-|
E|--5-5-5-5-5-5-5-5-5-5-5-5-|

  Hanging Out By The Club...............
G|---------------7----------9-----------------7--------9-------|
D|-7-------------7--4-sec---9-4-sec--7--------7-4-sec--9-4-sec-|
A|-7-wait 8 sec--5----------7--------7-8-sec--5--------7-------|
E|-5---------------------------------5-------------------------|

A|-----7-5-slide-4-5-4-0----7-5-slide-4-5-4---7-5-slide-4-5-4-0---7-5-slide-4-5-4-|
E|---5--------------------5-----------------5-------------------5-----------------|

  She's getting kicked outta school for failing..............
D|--7->>>----------|
A|--7->>>-Let Ring-|
E|--5->>>----------|

  Cause I Fell In Love With The Girl.............
G|----------------7-7----------------7-7----------------7-7-|
D|--7-7-7-7--4-4--7-7--7-7-7-7--4-4--7-7--7-7-7-7--4-4--7-7-|
A|--7-7-7-7--4-4--5-5--7-7-7-7--4-4--5-5--7-7-7-7--4-4--5-5-|
E|--5-5-5-5--2-2-------5-5-5-5--2-2-------5-5-5-5--2-2------|

  Everything's better when she's around..........
G|-7-7-7-7-7-7-7-7-9-9-9-9-9-9-9-9--7-7-7-7--7--------9-------|
D|-7-7-7-7-7-7-7-7-9-9-9-9-9-9-9-9--7-7-7-7--7-Clean--9-Clean-|
A|-5-5-5-5-5-5-5-5-7-7-7-7-7-7-7-7--5-5-5-5--5--------7-------|
  [            Palm Mute                   ]

A|-----7-5-slide-4-5-4-0----7-5-slide-4-5-4---7-5-slide-4-5-4-0---7-5-slide-4-5-4-|
E|---5--------------------5-----------------5-------------------5-----------------|

  When We Said We Were Going To Moving to Vegas...........
D|----------------7----------9-------|
A|--7>>>-Let Ring-7--4-sec---9-4-sec-|
E|--7>>>----------5----------7-------|
E|--5>>>-----------------------------|

  17 Without a purpose or a direction.......................
G|---------------7----------9--------|
D|-7-------------7--4-sec---9-4-sec--|
A|-7-wait 8 sec--5----------7--------|
E|-5---------------------------------|

  Cause I Fell In Love With The Girl.............
G|----------------7-7----------------7-7----------------7-7-|
D|--7-7-7-7--4-4--7-7--7-7-7-7--4-4--7-7--7-7-7-7--4-4--7-7-|
A|--7-7-7-7--4-4--5-5--7-7-7-7--4-4--5-5--7-7-7-7--4-4--5-5-|
E|--5-5-5-5--2-2-------5-5-5-5--2-2-------5-5-5-5--2-2------|

  Everything's better when she's around..........
G|-7-7-7-7-7-7-7-7-9-9-9-9-9-9-9-9--7-7-7-7--7--------9-------|
D|-7-7-7-7-7-7-7-7-9-9-9-9-9-9-9-9--7-7-7-7--7-Clean--9-Clean-|
A|-5-5-5-5-5-5-5-5-7-7-7-7-7-7-7-7--5-5-5-5--5--------7-------|
  [            Palm Mute                   ]

  Black and white picture of her on my wall..........
B|--2>>--2-3--2>>--2-3--2>>-2-3--2>>-2-3--2>>-2-3--2>>-2-3--2>>-2-3--2>>-2-3-|
G|--2>>--2-2--2>>--2-2--2>>-2-2--2>>-2-2--2>>-2-2--2>>-2-2--2>>-2-2--2>>-2-2-|

  Cause I Fell In Love With The Girl.............
G|----------------7-7----------------7-7----------------7-7-|
D|--7-7-7-7--4-4--7-7--7-7-7-7--4-4--7-7--7-7-7-7--4-4--7-7-|
A|--7-7-7-7--4-4--5-5--7-7-7-7--4-4--5-5--7-7-7-7--4-4--5-5-|
E|--5-5-5-5--2-2-------5-5-5-5--2-2-------5-5-5-5--2-2------|
  The Girl At The Rock Show.......  I will never forget you....... (8x) Then 
Fade
A|-----7-5-slide-4-5-4-0----7-5-slide-4-5-4---7-5-slide-4-5-4-0---7-5-slide-4-5-4-|
E|---5--------------------5-----------------5-------------------5-----------------|

-------------------------------------------------------------------------------

 2001 PunkHardcore.com
[ Tab from: http://www.guitaretab.com/b/blink-182/21890.html ]
Related for The Rock Show tab