Song name
# A B C D E F G H I J K L M N O P Q R S T U V W X Y Z

Blink 182 - Dammit tab

These tabs are a bit different than what u'd see in blink-182's music video for dammit but this way is a lot easier.

Intro:

e-------------------------------------------
B-------------------------------------------
G-------------------------------------------
D-----0-0-2----0-0-2-----0-0-2-----2-2-0----
A-3-3----------------0-0--------------------
E----------3-3-----------------1-1----------
(repeat twice)

Verses:

e-------------------------------------------------------------------------------
B-------------------------------------------------------------------------------
G-5---------------------------------------555555-------------------------------
D-5------5------7------3------------------555555-555555-777777-333333-----------
A-3-(x4)-5-(x4)-7-(x4)-3-(x4)-(repeat 2x)-333333-555555-777777-333333-repeat 2x)
E--------3------5------1-------------------------333333-555555-111111-----------

Interlude:

e------------------------------
B------------------------------
G-5-7-9-10---------------------
D-5-7-9-10--(repeat 2x)--------
A-3-5-7-8----------------------
E------------------------------

the part that starts out with "and it'll happen once again":

e------------------------------
B------------------------------
G-555555-----------------------
D-555555-555555-777777-333333-- (repeat 2x)
A-333333-555555-777777-333333--
E--------333333-555555-111111--
Tap to rate this tab
# A B C D E F G H I J K L M N O P Q R S T U V W X Y Z