Song name
# A B C D E F G H I J K L M N O P Q R S T U V W X Y Z

Blink 182 - Story Of A Lonley Guy tab

INTRO: clean

--------------------------------------------
------10-10-10-12-12-12-12-12-12-12-12-12-12
-9-9-9--------------------------------------
--------------------------------------------
--------------------------------------------
--------------------------------------------
 then                                         x2
--------------------------------------------
------10-10-10-12-12-12-10-10-10-10-10-10-10
-9-9-9--------------------------------------
--------------------------------------------
--------------------------------------------
--------------------------------------------

VERSE:(PM)

-------------------------------------
-------------------------------------
-------------------------------------
------------------------------------- x4
-------------------------------------
-00000000-22222222-44444444-55555555-

PRE CHORUS: clean

------------------------------------------------------
------------------------------------------------------
------------------------------------------------------
----7----7-------7-----7-------7-----7-------7-----7-- x2
-44--444---4--55---555---5--00---000---0--77---777--7-
------------------------------------------------------

CHOURUS: w/ distortion

-------------------------------------
-------------------------------------
-------------------------------------
----------99999999----------77777777- x4
-77777777-77777777-44444444-55555555-
-55555555----------22222222----------

BRIDGE:

----------------------------
----------------------------
----------------------------
----7-----7-------7-----7---
-44---444---4--55---555---5-
----------------------------
then w/ distortion           x2
------------------
------------------
------------------
-9999999999999999-
-7777777777777777-
------------------
then
------------------------------------------------------
------------------------------------------------------
------------------------------------------------------
----7----7-------7-----7-------7-----7-------7-----7-- 
-44--444---4--55---555---5--00---000---0--77---777--7-
------------------------------------------------------

----------------------------
----------------------------
----------------------------
----7-----7-------7-----7---
-44---444---4--55---555---5-
----------------------------

that's bout it. liten to the song to get the timing. any comments e-mail me at xicexmonkeyx@yahoo.com. late

Tap to rate this tab
# A B C D E F G H I J K L M N O P Q R S T U V W X Y Z