Song name
# A B C D E F G H I J K L M N O P Q R S T U V W X Y Z

Blink 182 - Wasting Time tab

Artists Name: Blink 182
Song Name: Wasting Time
Album: Cheshire Cat
Tuning: Standard 
Credit to: Aydee
E- Mail: Bones867@Aol.Com

H = Hammer On
P = Pull Off
X = palm Mute
/ = Slide up to Next Note
\ = Slide Down to Next Note

Intro:
E|--------------------------------------------------------------------------------------|
B|--------------------------------------------------------------------------------------|
G|--------------------------------------------------------------------------------------|
D|------6--7--9--7--6-----------/7-7-7--9--6---------6------7------6--------4-----4---2-|
A|----------------------7--0-------------------5\4------4------4------4\2-----2-----2---|
E|--0-----------------------------------------------------------------------------------|
                                                                                                            x2
Cool strumming part of intro:  (intro part 2)

E|-------------------------------------------------------------	|
B|-------------------------------------------------------------	|
G|-------------------------------------------------------------	|
D|--x---2-2-2-------------6-6-6-6-\--4-4-4-4-------------------	| 
A|--x---0-0-0---2-2-2-2---4-4-4-4--\-2-2-2-2-------------------	|
E|--x-----------0-0-0-0----------------------------------------	| x3

On 4th time it Changes to this:

E|----------------------------------------------------------------------
B|----------------------------------------------------------------------  
G|------------------------6-6-6-6-6-6-6-6---4-4-4-4-4-4-4-4------------- 
D|--x---2-2-2-------------6-6-6-6-6-6-6-6---4-4-4-4-4-4-4-4-------------  
A|--x---0-0-0---2-2-2-2---4-4-4-4-4-4-4-4---2-2-2-2-2-2-2-2-------------  
E|--x-----------0-0-0-0-------------------------------------------------

----------------------------5-----5-----5-----5-----5--------------------	|
-------------------------5-----5-----5-----5-----5----5------------------	|
-------------------------------------------------------------------------	|
--2-2-2-2-2-2-2-2--------------------------------------------------------	|
--0-0-0-0-0-0-0-0--------------------------------------------------------	|
-------------------------------------------------------------------------	|

Then Back to this: 
  
E|--------------------------------------------------------------------------------------|
B|--------------------------------------------------------------------------------------|
G|--------------------------------------------------------------------------------------|
D|------6--7--9--7--6-----------/7-7-7--9--6---------6-----7-----6--------4----4---2----|
A|-----------------------7--0-------------------5\4-----4-----4------4\2----2----2------|
E|--0-----------------------------------------------------------------------------------|
                                                                                                            x2
Verse And Part Of Chorus:

E|-------------------------------------------------------------	|	
B|-------------------------------------------------------------	|
G|-------------------------------------------------------------	|
D|-----2-2-2-------------6-6-6-6-\--4-4-4-4--------------------	|	
A|-----0-0-0---2-2-2-2---4-4-4-4--\-2-2-2-2------------------- 	|
E|-------------0-0-0-0-----------------------------------------	|

Chours:

E|----------------------------------------------------------------------
B|----------------------------------------------------------------------
G|------------------------6-6-6-6-6-6-6-6---4-4-4-4-4-4-4-4-------------
D|--x---2-2-2-------------6-6-6-6-6-6-6-6---4-4-4-4-4-4-4-4-------------
A|--x---0-0-0---2-2-2-2---4-4-4-4-4-4-4-4---2-2-2-2-2-2-2-2-------------
E|--x-----------0-0-0-0-------------------------------------------------

----------------------------5-----5-----5-----5-----5------------------- 	|
-------------------------5-----5-----5-----5-----5-----------------------	|
-------------------------------------------------------------------------	|
--2-2-2-2-2-2-2-2--------------------------------------------------------	|	
--0-0-0-0-0-0-0-0--------------------------------------------------------	|
-------------------------------------------------------------------------	|
   
(Second Verse uses some Palm Muting) 

Thats it!!!!!!!!!!!!!!!!

Any Questions or comments E-Mail Me





Tap to rate this tab
 
# A B C D E F G H I J K L M N O P Q R S T U V W X Y Z