Song name
# A B C D E F G H I J K L M N O P Q R S T U V W X Y Z

Blink 182 - Asthenia tab

Asthenia                        Blink 182


A
5 4 x x x x 


Gtr I (E A D G B E) - 'NASA Transmission'
Gtr II (E A D G B E) - 'NASA Transmission'
Gtr III (E A D G B E) - 'w/dist'
Gtr IV (E A D G B E) - 'w/dist'
Gtr V (E A D G B E) - 'w/dist and flange'
Gtr VI (E A D G B E) - 'Tom's Vocals'


   NASA Intro
    Moderately Fast Rock Q=176
    N.C.
   4/4
    Gtr I
    PM
    W          +W           +H.      Q    +W
||-----------|------------|-------------|--------|
||o----------|------------|-------------|--------|
||-----------|------------|-------------|--------|
||--4--------|-(4)--------|-(4)---------|--------|
||o----------|------------|----------4--|-(4)----|
||-----------|------------|-------------|--------|


  W          +W           W          +W
|----------|------------|----------|---------||
|----------|------------|----------|--------o||
|----------|------------|----------|---------||
|----------|------------|----------|---------||
|-5--------|-(5)--------|-7--------|-(7)----o||
|----------|------------|----------|---------||


  W          +W           +H.      Q    +W
|----------|------------|-------------|--------|
|----------|------------|-------------|--------|
|----------|------------|-------------|--------|
|-4--------|-(4)--------|-(4)---------|--------|
|----------|------------|----------4--|-(4)----|
|----------|------------|-------------|--------|


  W          +W           W          +W
|----------|------------|----------|--------|
|----------|------------|----------|--------|
|----------|------------|----------|--------|
|----------|------------|----------|--------|
|-5--------|-(5)--------|-7--------|-(7)----|
|----------|------------|----------|--------|


               G5
  Gtr I
  +W           +W           +W           +W
|------------|------------|------------|--------||
|------------|------------|------------|--------||
|------------|------------|------------|--------||
|------------|------------|------------|--------||
|-(7)--------|-(7)--------|-(7)--------|-(7)----||
|------------|------------|------------|--------||
|
| Gtr II
|  W            W           +W           +W
|------------|------------|------------|--------||
|------------|------------|------------|--------||
|------------|------------|------------|--------||
|------------|--5---------|-(5)--------|-(5)----||
|------------|--5---------|-(5)--------|-(5)----||
|------------|--3---------|-(3)--------|-(3)----||


   Intro
    N.C.
    Gtr V
    Q.   Q.   Q    +W           +W           Q.   Q.   Q
||---------------|------------|------------|---------------||
||o-----------7--|-(7)--------|-(7)--------|--------------o||
||--7------------|------------|------------|-7---------6---||
||-------0-------|------------|------------|------0--------||
||o--------------|------------|------------|--------------o||
||---------------|------------|------------|---------------||


 Verse
  D5                     C#5
  Gtr VI
  Q    E.   S Q.     E   E E E E.   S Q.
|----------------------|---------------------|
|-----10------7--------|-7-7-7-7------3------|
|----------------------|---------------------|
|----------------------|---------------------|
|----------------------|---------------------|
|----------------------|---------------------|
|
| Gtr V
| E E  E  E   E  E E E   E E E E  E   E  E E
|----------------------|---------------------|
|----------------------|---------------------|
|-7-7--7--7---7--7-7-7-|-6-6-6-6--6---6--6-6-|
|-x-x--x--x---x--x-x-x-|-x-x-x-x--x---x--x-x-|
|-5-5--5--5---5--5-5-5-|-4-4-4-4--4---4--4-4-|
|----------------------|---------------------|


  B5                   C#5
  E E E E.   S Q   E   E Q   Q.     Q
|--------------------|------------------|
|-7-7-7-7------3---3-|-3h5---2----------|
|--------------------|------------------|
|--------------------|------------------|
|--------------------|------------------|
|--------------------|------------------|
|
| E E E E  E   E E E   E E E E  E E E E
|--------------------|------------------|
|--------------------|------------------|
|-4-4-4-4--4---4-4-4-|-6-6-6-6--6-6-6-6-|
|-x-x-x-x--x---x-x-x-|-x-x-x-x--x-x-x-x-|
|-2-2-2-2--2---2-2-2-|-4-4-4-4--4-4-4-4-|
|--------------------|------------------|


  D5                     C#5
  Q    E.   S Q.     E   E E E E.   S Q   E
|----------------------|--------------------|
|-----10------7--------|-7-7-7-7------3---3-|
|----------------------|--------------------|
|----------------------|--------------------|
|----------------------|--------------------|
|----------------------|--------------------|
|
| E E  E  E   E  E E E   E E E E  E   E E E
|----------------------|--------------------|
|----------------------|--------------------|
|-7-7--7--7---7--7-7-7-|-6-6-6-6--6---6-6-6-|
|-x-x--x--x---x--x-x-x-|-x-x-x-x--x---x-x-x-|
|-5-5--5--5---5--5-5-5-|-4-4-4-4--4---4-4-4-|
|----------------------|--------------------|


  B5                   C#5
  E E E E.   S Q   E   E E E Q   Q.
|--------------------|------------------|
|-7-7-7-7------3---3-|-5-5-5-7---3------|
|--------------------|------------------|
|--------------------|------------------|
|--------------------|------------------|
|--------------------|------------------|
|
| E E E E  E   E E E   E E E E E E  E E
|--------------------|------------------|
|--------------------|------------------|
|-4-4-4-4--4---4-4-4-|-6-6-6-6-6-6--6-6-|
|-x-x-x-x--x---x-x-x-|-x-x-x-x-x-x--x-x-|
|-2-2-2-2--2---2-2-2-|-4-4-4-4-4-4--4-4-|
|--------------------|------------------|


  D5                     C#5
  Q    E.   S Q.     E   E E E E.   S Q   E
|----------------------|--------------------|
|-----10------7------3-|-7-7-7-7------3---3-|
|----------------------|--------------------|
|----------------------|--------------------|
|----------------------|--------------------|
|----------------------|--------------------|
|
| E E  E  E   E  E E E   E E E E  E   E E E
|----------------------|--------------------|
|----------------------|--------------------|
|-7-7--7--7---7--7-7-7-|-6-6-6-6--6---6-6-6-|
|-x-x--x--x---x--x-x-x-|-x-x-x-x--x---x-x-x-|
|-5-5--5--5---5--5-5-5-|-4-4-4-4--4---4-4-4-|
|----------------------|--------------------|


  B5                C#5
  E E E Q   Q   E   E E E Q   Q.
|-----------------|-------------------|
|-7-7-7-7---3---3-|-5-5-5-7---3-------|
|-----------------|-------------------|
|-----------------|-------------------|
|-----------------|-------------------|
|-----------------|-------------------|
|
| E E E E E E E E   E E E E E E  E E
|-----------------|-------------------|
|-----------------|-------------------|
|-4-4-4-4-4-4-4-4-|-6-6-6-6-6-6--6-6--|
|-x-x-x-x-x-x-x-x-|-x-x-x-x-x-x--x-x--|
|-2-2-2-2-2-2-2-2-|-4-4-4-4-4-4--4-4--|
|-----------------|-------------------|


  D5                    C#5
  Q    E.   S H         E E E E.   S Q   E
|---------------------|--------------------|
|-----10------7-------|-7-7-7-7------3---3-|
|---------------------|--------------------|
|---------------------|--------------------|
|---------------------|--------------------|
|---------------------|--------------------|
|
| E E  E  E   E E E E   E E E E  E   E E E
|---------------------|--------------------|
|---------------------|--------------------|
|-7-7--7--7---7-7-7-7-|-6-6-6-6--6---6-6-6-|
|-x-x--x--x---x-x-x-x-|-x-x-x-x--x---x-x-x-|
|-5-5--5--5---5-5-5-5-|-4-4-4-4--4---4-4-4-|
|---------------------|--------------------|


  B5                C#5
  E E E Q   Q   E   E E E Q   Q.
|-----------------|-------------------||
|-7-7-7-7---3---3-|-5-5-5-7---3-------||
|-----------------|-------------------||
|-----------------|-------------------||
|-----------------|-------------------||
|-----------------|-------------------||
|
| E E E E E E E E   E E E E E E  E E
|-----------------|-------------------||
|-----------------|-------------------||
|-4-4-4-4-4-4-4-4-|-6-6-6-6-6-6--6-6--||
|-x-x-x-x-x-x-x-x-|-x-x-x-x-x-x--x-x--||
|-2-2-2-2-2-2-2-2-|-4-4-4-4-4-4--4-4--||
|-----------------|-------------------||


   Pre-Chorus
    $
    G5                                  F#5
    Gtr III
    E E E E E E E E   E E E E E E E E   E E E E E E E E
||------------------|-----------------|-----------------|
||o-----------------|-----------------|-----------------|
||--7-7-6-6-7-7-9-9-|-7-7-6-6-7-7-9-9-|-7-7-6-6-7-7-9-9-|
||--x-x-x-x-x-x-x-x-|-x-x-x-x-x-x-x-x-|-x-x-x-x-x-x-x-x-|
||o-5-5-4-4-5-5-7-7-|-5-5-4-4-5-5-7-7-|-5-5-4-4-5-5-7-7-|
||------------------|-----------------|-----------------|
|
|   Gtr IV
|   E E E E E E E E   E E E E E E E E   E E E E E E E E
||------------------|-----------------|-----------------|
||o-----------------|-----------------|-----------------|
||--7-7-7-7-7-7-7-7-|-7-7-7-7-7-7-7-7-|-----------------|
||--7-7-7-7-7-7-7-7-|-7-7-7-7-7-7-7-7-|-4-4-4-4-4-4-4-4-|
||o-5-5-5-5-5-5-5-5-|-5-5-5-5-5-5-5-5-|-4-4-4-4-4-4-4-4-|
||------------------|-----------------|-2-2-2-2-2-2-2-2-|


  F#5               G5
                                              PM----|
  E E E E E E E E   E E E E E E E E   E E E E E E E E
|-----------------|-----------------|------------------||
|-----------------|-----------------|-----------------o||
|-7-7-6-6-7-7-9-9-|-7-7-6-6-7-7-9-9-|-7-7-6-x----------||
|-x-x-x-x-x-x-x-x-|-x-x-x-x-x-x-x-x-|-x-x-x-x----------||
|-5-5-4-4-5-5-7-7-|-5-5-4-4-5-5-7-7-|-5-5-4-4-5-5-5-5-o||
|-----------------|-----------------|---------3-3-3-3--||
|
| E E E E E E E E   E E E E E E E E   E E E E E E E E
|-----------------|-----------------|------------------||
|-----------------|-----------------|-----------------o||
|-----------------|-----------------|------------------||
|-4-4-4-4-4-4-4-4-|-5-5-5-5-5-5-5-5-|-5-5-5-5-x-x-x-x--||
|-4-4-4-4-4-4-4-4-|-5-5-5-5-5-5-5-5-|-5-5-5-5-x-x-x-x-o||
|-2-2-2-2-2-2-2-2-|-3-3-3-3-3-3-3-3-|-3-3-3-3-x-x-x-x--||


 Chorus
  N.C.                                                   A
  Gtr VI
  E E Q  Q  E E   Q  Q  E Q.      Q    Q  Q  E E   +E  Q     Q     Q.
|---------------|---------------|----------------|--------------------------|
|-2h3-7--7--2h3-|-7--7--7-3-----|-----10--7--7-8-|-(8)-8-----5-----3--------|
|---------------|---------------|----------------|--------------------------|
|---------------|---------------|----------------|--------------------------|
|---------------|---------------|----------------|--------------------------|
|---------------|---------------|----------------|--------------------------|
|
| Gtrs III, IV
| E E Q  Q  E E   Q  Q  E E  Q    E E  Q  Q  E E    Q     Q     Q      Q
|---------------|---------------|----------------|--------------------------|
|---------------|---------------|----------------|--------------------------|
|---------------|---------------|----------------|--------------------------|
|-----0--0------|-0--0-------0--|------0--0------|--------------------------|
|---------------|---------------|----------------|--4-----4-----4------4----|
|-2-2-------3-3-|-------3-3-----|-5-5--------5-5-|-------(5)---(5)----(5)---|


                                                         To Coda
  N.C.                                               A
  E E Q  Q  E E   Q    Q  E Q.      Q    Q  Q  Q     E Q  Q  Q.
|---------------|-----------------|----------------|---------------||
|-2h3-7--7--2h3-|-7b8--7--7-3-----|-----10--7--7---|-8-8--5--3-----||
|---------------|-----------------|----------------|---------------||
|---------------|-----------------|----------------|---------------||
|---------------|-----------------|----------------|---------------||
|---------------|-----------------|----------------|---------------||
|
| E E Q  Q  E E   Q    Q  E E  Q    E E  Q  Q  E E   W
|---------------|-----------------|----------------|---------------||
|---------------|-----------------|----------------|---------------||
|---------------|-----------------|----------------|---------------||
|-----0--0------|-0----0-------0--|------0--0------|---------------||
|---------------|-----------------|----------------|-4-------------||
|-2-2-------3-3-|---------3-3-----|-5-5--------5-5-|-5-------------||


   Pre-Verse
    N.C.
    Gtr V
    Q.   Q.   Q    +W           +W           Q.   Q.   Q
||---------------|------------|------------|---------------||
||o-----------7--|-(7)--------|-(7)--------|--------------o||
||--7------------|------------|------------|-7---------6---||
||-------0-------|------------|------------|------0--------||
||o--------------|------------|------------|--------------o||
||---------------|------------|------------|---------------||


 Verse
  D5                     C#5                B5                C#5
  Gtr VI
  Q    E.   S Q.     E   E E E Q   Q.       E E E Q   Q   E   E Q   Q.     Q
|----------------------|------------------|-----------------|------------------|
|-----10------7------7-|-7-7-7-7---3------|-7-7-7-7---3---2-|-3h5---2----------|
|----------------------|------------------|-----------------|------------------|
|----------------------|------------------|-----------------|------------------|
|----------------------|------------------|-----------------|------------------|
|----------------------|------------------|-----------------|------------------|
|
| Gtr V
| E E  E  E   E  E E E   E E E E E E  E E   E E E E E E E E   E E E E  E E E E
|----------------------|------------------|-----------------|------------------|
|----------------------|------------------|-----------------|------------------|
|-7-7--7--7---7--7-7-7-|-6-6-6-6-6-6--6-6-|-4-4-4-4-4-4-4-4-|-6-6-6-6--6-6-6-6-|
|-x-x--x--x---x--x-x-x-|-x-x-x-x-x-x--x-x-|-x-x-x-x-x-x-x-x-|-x-x-x-x--x-x-x-x-|
|-5-5--5--5---5--5-5-5-|-4-4-4-4-4-4--4-4-|-2-2-2-2-2-2-2-2-|-4-4-4-4--4-4-4-4-|
|----------------------|------------------|-----------------|------------------|


  D5                     C#5
  Q    E.   S Q.     E   E E E Q   Q   E
|----------------------|-----------------|
|-----10------7------7-|-7-7-7-7---3---3-|
|----------------------|-----------------|
|----------------------|-----------------|
|----------------------|-----------------|
|----------------------|-----------------|
|
| E E  E  E   E  E E E   E E E E E E E E
|----------------------|-----------------|
|----------------------|-----------------|
|-7-7--7--7---7--7-7-7-|-6-6-6-6-6-6-6-6-|
|-x-x--x--x---x--x-x-x-|-x-x-x-x-x-x-x-x-|
|-5-5--5--5---5--5-5-5-|-4-4-4-4-4-4-4-4-|
|----------------------|-----------------|


                          D.S. al Coda
  B5                   C#5
  E E E E.   S Q   E   E Q   Q.     Q
|--------------------|-------------------||
|-7-7-7-7------3---3-|-5-5---7------3----||
|--------------------|-------------------||
|--------------------|-------------------||
|--------------------|-------------------||
|--------------------|-------------------||
|
| E E E E  E   E E E   E E E E  E E E E
|--------------------|-------------------||
|--------------------|-------------------||
|-4-4-4-4--4---4-4-4-|-6-6-6-6--6-6-6-6--||
|-x-x-x-x--x---x-x-x-|-x-x-x-x--x-x-x-x--||
|-2-2-2-2--2---2-2-2-|-4-4-4-4--4-4-4-4--||
|--------------------|-------------------||


 Chorus Prt 2
  &
  N.C.                                                   A
  Gtr VI
  E E Q  Q  E E   Q  Q  E Q.      Q    Q  Q  E E   +E  Q     Q     Q.
|---------------|---------------|----------------|--------------------------|
|-2h3-7--7--2h3-|-7--7--7-3-----|-----10--7--7-8-|-(8)-8-----5-----3--------|
|---------------|---------------|----------------|--------------------------|
|---------------|---------------|----------------|--------------------------|
|---------------|---------------|----------------|--------------------------|
|---------------|---------------|----------------|--------------------------|
|
| Gtrs III, IV
| E E Q  Q  E E   Q  Q  E E  Q    E E  Q  Q  E E    Q     Q     Q      Q
|---------------|---------------|----------------|--------------------------|
|---------------|---------------|----------------|--------------------------|
|---------------|---------------|----------------|--------------------------|
|-----0--0------|-0--0-------0--|------0--0------|--------------------------|
|---------------|---------------|----------------|--4-----4-----4------4----|
|-2-2-------3-3-|-------3-3-----|-5-5--------5-5-|-------(5)---(5)----(5)---|


  N.C.                                               A
  E E Q  Q  E E   Q    Q  E Q.      Q    Q  Q  Q     E Q  Q  Q.
|---------------|-----------------|----------------|---------------||
|-2h3-7--7--2h3-|-7b8--7--7-3-----|-----10--7--7---|-8-8--5--3-----||
|---------------|-----------------|----------------|---------------||
|---------------|-----------------|----------------|---------------||
|---------------|-----------------|----------------|---------------||
|---------------|-----------------|----------------|---------------||
|
| E E Q  Q  E E   Q    Q  E E  Q    E E  Q  Q  E E   W
|---------------|-----------------|----------------|---------------||
|---------------|-----------------|----------------|---------------||
|---------------|-----------------|----------------|---------------||
|-----0--0------|-0----0-------0--|------0--0------|---------------||
|---------------|-----------------|----------------|-4-------------||
|-2-2-------3-3-|---------3-3-----|-5-5--------5-5-|-5-------------||


 Interlude
  D5
  Gtr III
  E E E E Q      E E   Q      E E E E E E   Q  Q  H      E E E E Q      E E
|--------------------|--------------------|------------|---------------------|
|--------------------|--------------------|------------|---------------------|
|-7-7-7-7-7b7.5--7-7-|-7b7.5--7-7-7-7-7-7-|-7----------|-7-7-7-7-7b7.5--7-7--|
|-x-x-x-x-x------x-x-|-x------x-x-x-x-x-x-|-x----------|-x-x-x-x-x------x-x--|
|-5-5-5-5-5b5.5--5-5-|-5b5.5--5-5-5-5-5-5-|-5----------|-5-5-5-5-5b5.5--5-5--|
|--------------------|--------------------|------------|---------------------|


  Q      E E E E E E   Q  Q  H
|--------------------|------------|
|--------------------|------------|
|-7b7.5--7-7-7-7-7-7-|-7----------|
|-x------x-x-x-x-x-x-|-x----------|
|-5b5.5--5-5-5-5-5-5-|-5----------|
|--------------------|------------|


  F#5                                              E5
   E  E  E  E  Q        E  E    Q        E  E  E E E E
|----------------------------|--------------------------|
|----------------------------|--------------------------|
|-11-11-11-11-11b11.5--11-11-|-11b11.5--11-11-11-9-9-9--|
|--x--x--x--x--x--------x--x-|--x--------x--x--x-x-x-x--|
|--9--9--9--9--9b9.5----9--9-|--9b9.5----9--9--9-7-7-7--|
|----------------------------|--------------------------|


               D5
  Q  Q  H      E E E E Q      E E   Q      E E E E E E   Q  Q  H
|------------|--------------------|--------------------|------------|
|------------|--------------------|--------------------|------------|
|-9----------|-7-7-7-7-7b7.5--7-7-|-7b7.5--7-7-7-7-7-7-|-7----------|
|-x----------|-x-x-x-x-x------x-x-|-x------x-x-x-x-x-x-|-x----------|
|-7----------|-5-5-5-5-5b5.5--5-5-|-5b5.5--5-5-5-5-5-5-|-5----------|
|------------|--------------------|--------------------|------------|


    D5        N.C.
      PM----|
    E E E E E E E E   E E E E E E E E
||------------------|-----------------|
||o-----------------|-----------------|
||------------------|-----------------|
||--x-7-7-7-7-4-4-4-|-4-5-5-5-5-2-2-2-|
||o-x-5-5-5-5-------|-----------------|
||------------------|-----------------|


                      D5        N.C.
          PM----|       PM----|
  E E E E E E E E     E E E E E E E E   E E E E E E E E
|------------------||-----------------|-----------------|
|-----------------o||-----------------|-----------------|
|------------------||-----------------|-----------------|
|-2-2-2-2-0-0-0-0--||-x-7-7-7-7-4-4-4-|-4-5-5-5-5-2-2-2-|
|-----------------o||-x-5-5-5-5-------|-----------------|
|------------------||-----------------|-----------------|


          D5
          PM----|
  E E E E E E E E   W          +W           +W           +W
|-----------------|----------|------------|------------|--------|
|-----------------|----------|------------|------------|--------|
|-----------------|-7--------|-(7)--------|-(7)--------|-(7)----|
|-2-2-2-2-7-7-7-7-|-7--------|-(7)--------|-(7)--------|-(7)----|
|---------5-5-5-5-|-5--------|-(5)--------|-(5)--------|-(5)----|
|-----------------|----------|------------|------------|--------|


  +W           +W           +W           +W
|------------|------------|------------|--------||
|------------|------------|------------|--------||
|-(7)--------|-(7)--------|-(7)--------|-(7)----||
|-(7)--------|-(7)--------|-(7)--------|-(7)----||
|-(5)--------|-(5)--------|-(5)--------|-(5)----||
|------------|------------|------------|--------||


 Chorus
  N.C.                                                   A
  Gtr VI
  E E Q  Q  E E   Q  Q  E Q.      Q    Q  Q  E E   +E  Q     Q     Q.
|---------------|---------------|----------------|--------------------------|
|-2h3-7--7--2h3-|-7--7--7-3-----|-----10--7--7-8-|-(8)-8-----5-----3--------|
|---------------|---------------|----------------|--------------------------|
|---------------|---------------|----------------|--------------------------|
|---------------|---------------|----------------|--------------------------|
|---------------|---------------|----------------|--------------------------|
|
| Gtr IV
| E E Q  Q  E E   Q  Q  E E  Q    E E  Q  Q  E E    Q     Q     Q      Q
|---------------|---------------|----------------|--------------------------|
|---------------|---------------|----------------|--------------------------|
|---------------|---------------|----------------|--------------------------|
|-----0--0------|-0--0-------0--|------0--0------|--------------------------|
|---------------|---------------|----------------|--4-----4-----4------4----|
|-2-2-------3-3-|-------3-3-----|-5-5--------5-5-|-------(5)---(5)----(5)---|


  N.C.                                                   A
  E E Q  Q  E E   Q    Q  E Q.      Q    Q  H        E Q     Q     Q.
|---------------|-----------------|----------------|------------------------|
|-2h3-7--7--2h3-|-7b8--7--7-3-----|-----10--7------|-8-8-----5-----3--------|
|---------------|-----------------|----------------|------------------------|
|---------------|-----------------|----------------|------------------------|
|---------------|-----------------|----------------|------------------------|
|---------------|-----------------|----------------|------------------------|
|
| E E Q  Q  E E   Q    Q  E E  Q    E E  Q  Q  E E   Q    Q     Q      Q
|---------------|-----------------|----------------|------------------------|
|---------------|-----------------|----------------|------------------------|
|---------------|-----------------|----------------|------------------------|
|-----0--0------|-0----0-------0--|------0--0------|------------------------|
|---------------|-----------------|----------------|-4----4-----4------4----|
|-2-2-------3-3-|---------3-3-----|-5-5--------5-5-|-----(5)---(5)----(5)---|


  N.C.                                                   A
  E E Q  Q  E E   Q  Q  E Q.      Q    Q  Q  E E   +E  Q     Q     Q.
|---------------|---------------|----------------|--------------------------|
|-2h3-7--7--2h3-|-7--7--7-3-----|-----10--7--7-8-|-(8)-8-----5-----3--------|
|---------------|---------------|----------------|--------------------------|
|---------------|---------------|----------------|--------------------------|
|---------------|---------------|----------------|--------------------------|
|---------------|---------------|----------------|--------------------------|
|
| E E Q  Q  E E   Q  Q  E E  Q    E E  Q  Q  E E    Q     Q     Q      Q
|---------------|---------------|----------------|--------------------------|
|---------------|---------------|----------------|--------------------------|
|---------------|---------------|----------------|--------------------------|
|-----0--0------|-0--0-------0--|------0--0------|--------------------------|
|---------------|---------------|----------------|--4-----4-----4------4----|
|-2-2-------3-3-|-------3-3-----|-5-5--------5-5-|-------(5)---(5)----(5)---|


  N.C.                                               A
  E E Q  Q  E E   Q    Q  E Q.      Q    Q  Q  Q     E Q  Q  Q.
|---------------|-----------------|----------------|---------------||
|-2h3-7--7--2h3-|-7b8--7--7-3-----|-----10--7--7---|-8-8--5--3-----||
|---------------|-----------------|----------------|---------------||
|---------------|-----------------|----------------|---------------||
|---------------|-----------------|----------------|---------------||
|---------------|-----------------|----------------|---------------||
|
| E E Q  Q  E E   Q    Q  E E  Q    E E  Q  Q  E E   W
|---------------|-----------------|----------------|---------------||
|---------------|-----------------|----------------|---------------||
|---------------|-----------------|----------------|---------------||
|-----0--0------|-0----0-------0--|------0--0------|---------------||
|---------------|-----------------|----------------|-4-------------||
|-2-2-------3-3-|---------3-3-----|-5-5--------5-5-|-5-------------||


 Outro
  D5                                  F#5
  Gtr III
  E E E E E E E E   E E E E E E E E   E E E E E E E E
|-----------------|-----------------|-----------------|
|-----------------|-----------------|-----------------|
|-7-7-6-6-7-7-9-9-|-7-7-6-6-7-7-9-9-|-7-7-6-6-7-7-9-9-|
|-x-x-x-x-x-x-x-x-|-x-x-x-x-x-x-x-x-|-x-x-x-x-x-x-x-x-|
|-5-5-4-4-5-5-7-7-|-5-5-4-4-5-5-7-7-|-5-5-4-4-5-5-7-7-|
|-----------------|-----------------|-----------------|
|
| Gtr IV
| E E E E E E E E   E E E E E E E E   E E E E E E E E
|-----------------|-----------------|-----------------|
|-----------------|-----------------|-----------------|
|-7-7-7-7-7-7-7-7-|-7-7-7-7-7-7-7-7-|-----------------|
|-7-7-7-7-7-7-7-7-|-7-7-7-7-7-7-7-7-|-4-4-4-4-4-4-4-4-|
|-5-5-5-5-5-5-5-5-|-5-5-5-5-5-5-5-5-|-4-4-4-4-4-4-4-4-|
|-----------------|-----------------|-2-2-2-2-2-2-2-2-|


                    G5
                                              PM----|
  E E E E E E E E   E E E E E E E E   E E E E E E E E
|-----------------|-----------------|-----------------|
|-----------------|-----------------|-----------------|
|-7-7-6-6-7-7-9-9-|-7-7-6-6-7-7-9-9-|-7-7-6-x---------|
|-x-x-x-x-x-x-x-x-|-x-x-x-x-x-x-x-x-|-x-x-x-x---------|
|-5-5-4-4-5-5-7-7-|-5-5-4-4-5-5-7-7-|-5-5-4-4-5-5-5-5-|
|-----------------|-----------------|---------3-3-3-3-|
|
| E E E E E E E E   E E E E E E E E   E E E E E E E E
|-----------------|-----------------|-----------------|
|-----------------|-----------------|-----------------|
|-----------------|-----------------|-----------------|
|-4-4-4-4-4-4-4-4-|-5-5-5-5-5-5-5-5-|-5-5-5-5-x-x-x-x-|
|-4-4-4-4-4-4-4-4-|-5-5-5-5-5-5-5-5-|-5-5-5-5-x-x-x-x-|
|-2-2-2-2-2-2-2-2-|-3-3-3-3-3-3-3-3-|-3-3-3-3-x-x-x-x-|


  D5                                  F#5
  E E E E E E E E   E E E E E E E E   E E E E E E E E   E E E E E E E E
|-----------------|-----------------|-----------------|------------------|
|-----------------|-----------------|-----------------|------------------|
|-7-7-6-6-7-7-9-9-|-7-7-6-6-7-7-9-9-|-7-7-6-6-7-7-9-9-|-7-7-6-6-7-7-9-9--|
|-x-x-x-x-x-x-x-x-|-x-x-x-x-x-x-x-x-|-x-x-x-x-x-x-x-x-|-x-x-x-x-x-x-x-x--|
|-5-5-4-4-5-5-7-7-|-5-5-4-4-5-5-7-7-|-5-5-4-4-5-5-7-7-|-5-5-4-4-5-5-7-7--|
|-----------------|-----------------|-----------------|------------------|
|
| E E E E E E E E   E E E E E E E E   E E E E E E E E   E E E E E E E E
|-----------------|-----------------|-----------------|------------------|
|-----------------|-----------------|-----------------|------------------|
|-7-7-7-7-7-7-7-7-|-7-7-7-7-7-7-7-7-|-----------------|------------------|
|-7-7-7-7-7-7-7-7-|-7-7-7-7-7-7-7-7-|-4-4-4-4-4-4-4-4-|-4-4-4-4-4-4-4-4--|
|-5-5-5-5-5-5-5-5-|-5-5-5-5-5-5-5-5-|-4-4-4-4-4-4-4-4-|-4-4-4-4-4-4-4-4--|
|-----------------|-----------------|-2-2-2-2-2-2-2-2-|-2-2-2-2-2-2-2-2--|


  G5
    W             +W              +W              +W
|-<12>--------|-(<12>)--------|-(<12>)--------|-(<12>)----*|
|-------------|---------------|---------------|-----------*|
|-------------|---------------|---------------|-----------*|
|-------------|---------------|---------------|-----------*|
|-------------|---------------|---------------|-----------*|
|-------------|---------------|---------------|-----------*|
|
|   W             +W              +W              +W
|-------------|---------------|---------------|-----------*|
|-------------|---------------|---------------|-----------*|
|-------------|---------------|---------------|-----------*|
|---5---------|---(5)---------|---(5)---------|---(5)-----*|
|---5---------|---(5)---------|---(5)---------|---(5)-----*|
|---3---------|---(3)---------|---(3)---------|---(3)-----*|


Tap to rate this tab
# A B C D E F G H I J K L M N O P Q R S T U V W X Y Z