Song name
# A B C D E F G H I J K L M N O P Q R S T U V W X Y Z

Blink 182 - Adam Song tab

	     ADAMS SONG - Blink-182

Intro 

Bm               D/A               D/G               D/E      D/G 
------------------------------------------------------------------------
------------------------------------------------------------------------
------------------------------------------------------------------------
----4--0----4--0-----4--0-----4--0-----4--0-----4--0-----4--0-----4--0--
--2-------2--------0--------0-------------------------------------------
-------------------------------------3--------3--------0--------3------- 
(play twice) 

Verse 

D          G5        B5        G5   (play four times) 
------------------------------------------------------------------------
------------------------------------------------------------------------
------------------------------------------------------------------------
-44444444---------------------------------------------------------------
-55555555--55555555--99999999--55555555---------------------------------
-----------33333333--77777777--33333333---------------------------------
 
    I never thought I'd die alone. I laughed... 


Interlude 

Dsus4           Em               Bm                D/G 
------------------------------------------------------------------------
------------------------------------------------------------------------
------0-------0-------0-------0-----------------------------------------
---7-------7-------9-------9--------4--0-----4--0-----4--0-----4--0-----
5-------5-------7-------7--------2--------2-----------------------------
---------------------------------------------------3--------3----------- 
(play twice) 


Chorus 

Gtrs. 1&2 
  D5        E5        B5         G5 
----------------------------------/----/----/----/----/----/----/----/--
----------------------------------/8---/8---/8---/8---/8---/8---/8---/8-
--77777777--99999999\-44444444----/x---/x---/x---/x---/x---/x---/x---/x-
--xxxxxxxx--xxxxxxxx--xxxxxxxx---5/5--5/5--5/5--5/5--5/5--5/5--5/5--5/5-
--55555555--77777777\-22222222---x/---x/---x/---x/---x/---x/---x/---x/--
---------------------------------3/---3/---3/---3/---3/---3/---3/---3/-- 

                                 *Gtr. 2 to left of slash. 

I never conquered, rarely came. Sixteen... 

D                 Em                B5                G5 
------------------------------------------------------------------------
------------------------------------------------------------------------
-7-7-7-7-7-7-7-7---9-9-9-9-9-9-9-9\--4-4-4-4-4-4-4-4--------------------
-x-x-x-x-x-x-x-x---x-x-x-x-x-x-x-x-\-x-x-x-x-x-x-x-x---5-5-5-5-5-5-5-5--
-5-5-5-5-5-5-5-5---7-7-7-7-7-7-7-7--\2-2-2-2-2-2-2-2---x-x-x-x-x-x-x-x--
-------------------------------------------------------3-3-3-3-3-3-3-3-- 

days when I still felt alive. We couldn't... 

------------------------------------------------------------------------
------------------------------------------------------------------------ 
-7-7-7-7-7-7-7-7---9-9-9-9-9-9-9-9---1111111111111111--1212121212121212-
-x-x-x-x-x-x-x-x---x-x-x-x-x-x-x-x---x-x-x-x-x-x-x-x---x-x-x-x-x-x-x-x--
-5-5-5-5-5-5-5-5---7-7-7-7-7-7-7-7---9-9-9-9-9-9-9-9---1010101010101010-
------------------------------------------------------------------------ 

...side. The world was wide, too late to try... 

D5                E5                B5                G5 
-1717171717171717--1515151515151515--1414141414141414-------------------
-x-x-x-x-x-x-x-x---x-x-x-x-x-x-x-x---x-x-x-x-x-x-x-x---1515151515151515-
-1414141414141414--1212121212121212--1111111111111111--x-x-x-x-x-x-x-x--
-------------------------------------------------------1212121212121212-
------------------------------------------------------------------------
------------------------------------------------------------------------ 

I couldn't wait till I got home... 

Bm               D/A               D/G               D/E      D/G 
------------------------------------------------------------------------
------------------------------------------------------------------------
------------------------------------------------------------------------
----4--0-----4--0-----4--0-----4--0-----4--0-----4--0-----4--0-----4--0-
-2--------2--------0--------0-------------------------------------------
-------------------------------------3--------3--------0--------3------- 

(play twice) 

D          G5         B5         G5   (play four times) 
------------------------------------------------------------------------
------------------------------------------------------------------------
------------------------------------------------------------------------
-44444444---------------------------------------------------------------
-55555555---55555555---99999999---55555555------------------------------
------------33333333---77777777---33333333------------------------------ 

I never thought I'd die alone. Another six... 

Dsus4             Em                Bm                D/G 
------------------------------------------------------------------------
------------------------------------------------------------------------
-------0--------0--------0--------0-------------------------------------
----7--------7--------9--------9--------4--0-----4--0-----4--0-----4--0-
-5--------5--------7--------7--------2--------2-------------------------
-------------------------------------------------------3--------3------- 
(play twice) 


Gtrs. 1&2 
  D5        E5        B5         G5 
----------------------------------/----/----/----/----/----/----/----/--
----------------------------------/8---/8---/8---/8---/8---/8---/8---/8-
--77777777--99999999\-44444444----/x---/x---/x---/x---/x---/x---/x---/x-
--xxxxxxxx--xxxxxxxx--xxxxxxxx---5/5--5/5--5/5--5/5--5/5--5/5--5/5--5/5-
--55555555--77777777\-22222222---x/---x/---x/---x/---x/---x/---x/---x/--
---------------------------------3/---3/---3/---3/---3/---3/---3/---3/-- 

                                 *Gtr. 2 to left of slash. 

I never conquered, rarely came. Sixteen... 

D                 Em                B5                G5 
------------------------------------------------------------------------
------------------------------------------------------------------------
-7-7-7-7-7-7-7-7---9-9-9-9-9-9-9-9\--4-4-4-4-4-4-4-4--------------------
-x-x-x-x-x-x-x-x---x-x-x-x-x-x-x-x-\-x-x-x-x-x-x-x-x---5-5-5-5-5-5-5-5--
-5-5-5-5-5-5-5-5---7-7-7-7-7-7-7-7--\2-2-2-2-2-2-2-2---x-x-x-x-x-x-x-x--
-------------------------------------------------------3-3-3-3-3-3-3-3-- 

days when I still felt alive. We couldn't... 

------------------------------------------------------------------------
------------------------------------------------------------------------ 
-7-7-7-7-7-7-7-7---9-9-9-9-9-9-9-9---1111111111111111--1212121212121212-
-x-x-x-x-x-x-x-x---x-x-x-x-x-x-x-x---x-x-x-x-x-x-x-x---x-x-x-x-x-x-x-x--
-5-5-5-5-5-5-5-5---7-7-7-7-7-7-7-7---9-9-9-9-9-9-9-9---1010101010101010-
------------------------------------------------------------------------ 

...side. The world was wide, too late to try... 


D5                E5                B5                G5 
-1717171717171717--1515151515151515--1414141414141414-------------------
-x-x-x-x-x-x-x-x---x-x-x-x-x-x-x-x---x-x-x-x-x-x-x-x---1515151515151515-
-1414141414141414--1212121212121212--1111111111111111--x-x-x-x-x-x-x-x--
-------------------------------------------------------1212121212121212-
------------------------------------------------------------------------
------------------------------------------------------------------------ 

I couldn't wait till I got home... 


Gtrs. 1&2 (Syncro) 

Gtr. 2 
  D                                 Dadd4/A          Dadd4/G 
-----------------------------------------------------2------------------
-------------------3--------------------------3--------------3----------
------------------------------------2----------------------------2------
--0---------------------------------------------------------------------
------------------------------------------------------------------------
------------------------------------------------------------------------ 

Gtr. 1 
------------------------------------------------------------------------
------------------------------------------------------------------------
------0-----0----------0-----0----------0-----0----------0--------------
----4-----4-----4----4-----4-----4----4-----4-----4----4---0---0---0----
--5-----5-----5----5-----5-----5----5-----5-----5----5-------5---5------
------------------------------------------------------------------------ 

Gtr. 2 

Dadd4              Dadd4/G          Asus2__A5       Dadd4/BDadd4/GDadd4 
--2-------------------------------------------------2-------------------
-------------------3-------------------------3-------------3------3-----
------------------------------------2--------------------------2--------
------------------------------------------------------------------------
------------------------------------------------------------------------
------------------------------------------------------------------------ 

Gtr. 1 
------------------------------------------------------------------------
------------------------------------------------------------------------
------0---0------------0------------------------------------------------
----4-------4---4----4-----4---0--------2----2---2__0---4------0------0-
--5-----5-----5----5-----5---5---5----2---------------0------2------4---
------------------------------------5------5---5-----------5------5----- 

             Dadd4/G          Asus2  A5       Dadd4/G 
------------------------------------------------------------------------
------------------------------------------------------------------------
----0------------0------------------------------------------------------
------4---4----4-----4---0--------2----2---2__0---4------0--------------
--5-----5----5-----5---5---5----2---------------0------2----------------
------------------------------5------5---5-----------5------------------ 

  Dadd4            Dadd4/G          Asus2 A5        Dadd4/B Dadd5/G 
------------------------------------------------------------------------
------------------------------------------------------------------------
------0---0------------0--------------------------------------0---------
----4-------4---4----4-----4---0--------2----2---2__0---4---4-----------
--5----5------5----5----5---5----5----2---------------5---5-----5-------
------------------------------------5-----5----5------------------------ 

  Dadd4            D5/G             Dadd4            D5/G 
------------------------------------------------------------------------
------------------------------------------------------------------------
------7-----7------7-----7-----7--------7-----7------7-----7-----7------
----0-----0-----0------0-----0---0----0-----0-----0------0-----0---0----
--5-----5-----5------5-----5--------5-----5-----5------5-----5----------
------------------------------------------------------------------------ 

  D5/A             D5/B    Dh/G 
------------------------------------------------------------------------
------------------------------------------------------------------------
------7-----7------7-----7-----7----------------------------------------
----0-----0-----0------0-----0---0--------------------------------------
--5-----5-----5------5-----5--------------------------------------------
------------------------------------------------------------------------ 

Gtrs. 1&2 

  D5        E5        B5         G5 
----------------------------------/----/----/----/----/----/----/----/--
----------------------------------/8---/8---/8---/8---/8---/8---/8---/8-
--77777777--99999999\-44444444----/x---/x---/x---/x---/x---/x---/x---/x-
--xxxxxxxx--xxxxxxxx--xxxxxxxx---5/5--5/5--5/5--5/5--5/5--5/5--5/5--5/5-
--55555555--77777777\-22222222---x/---x/---x/---x/---x/---x/---x/---x/--
---------------------------------3/---3/---3/---3/---3/---3/---3/---3/-- 

                                 *Gtr. 2 to left of slash. 

I never conquered, rarely came. Tomorrow 

D                 Em                B5                G5 
------------------------------------------------------------------------
------------------------------------------------------------------------
-7-7-7-7-7-7-7-7---9-9-9-9-9-9-9-9\--4-4-4-4-4-4-4-4--------------------
-x-x-x-x-x-x-x-x---x-x-x-x-x-x-x-x-\-x-x-x-x-x-x-x-x---5-5-5-5-5-5-5-5--
-5-5-5-5-5-5-5-5---7-7-7-7-7-7-7-7--\2-2-2-2-2-2-2-2---x-x-x-x-x-x-x-x--
-------------------------------------------------------3-3-3-3-3-3-3-3-- 

days when I can still fell alive. When I can't... 

------------------------------------------------------------------------
------------------------------------------------------------------------ 
-7-7-7-7-7-7-7-7---9-9-9-9-9-9-9-9---1111111111111111--1212121212121212-
-x-x-x-x-x-x-x-x---x-x-x-x-x-x-x-x---x-x-x-x-x-x-x-x---x-x-x-x-x-x-x-x--
-5-5-5-5-5-5-5-5---7-7-7-7-7-7-7-7---9-9-9-9-9-9-9-9---1010101010101010-
------------------------------------------------------------------------ 

...side. The world is wide, the time goes by... 

D5                E5                B5                G5 
-1717171717171717--1515151515151515--1414141414141414-------------------
-x-x-x-x-x-x-x-x---x-x-x-x-x-x-x-x---x-x-x-x-x-x-x-x---1515151515151515-
-1414141414141414--1212121212121212--1111111111111111--x-x-x-x-x-x-x-x--
-------------------------------------------------------1212121212121212-
------------------------------------------------------------------------
------------------------------------------------------------------------ 

I can't wait till I get home... 

------------------------------------17----------------------------------
--15--15--15--15--15--15--15--15----x-----------------------------------
--x---x---x---x---x---x---x---x-----14----------------------------------
--12--12--12--12--12--12--12--12----------------------------------------
------------------------------------------------------------------------
------------------------------------------------------------------------
 
...in my room alone. 


any questions?fuck u!!!!!!!!

Tap to rate this tab
# A B C D E F G H I J K L M N O P Q R S T U V W X Y Z