Guitaretab - guitar tabs
Song name
# A B C D E F G H I J K L M N O P Q R S T U V W X Y Z

Blink 182 - First Date tab

Blink 182
First Date
This Tab Is 100% Correct
Tabber:Alex Chavez

Intro: 
e|-0---------------------------------|                            
B|---1---1-0-3-1--1-0-3-1--1-0-3-1--0|
G|----0---------0---------0-------0--| x2
D|-----------------------------------|
A|-----------------------------------|
E|-----------------------------------|
        
e|----|
B|----|
G|-5~-| (Let It Ring)
D|-x~-|
A|-3~-|
E|----|

(No Guitar)

Come In With This Starting On.."Do You Like My Stupid Hair..."
Listen For Timing  
Verse:
e----------|
B----------|
G----5-5-5-| x15
D----------|
A----------|
E----------|
P.M. . . .

 Pre-Chorus:
e|-----------------------|
B|-----------------------|
G|-555-555-2222----------| x2
D|-555-555-2222--33-55---|
A|-333-222-0000--33-55---|
E|---------------11-33---|

 Chorus:
e|----------------------------|
B|--------333333-111111-------|
G|-555555-000000-222222-------| x2
D|-555555-000000-222222-33-55-|
A|-333333-222222-000000-33-55-|
E|----------------------11-33-|

(Intro x2)
(No Guitar)
(Verse x15 Starts On "Please Dont Look At Me With Those Eyes")
(Pre-Chorus x2)
(Chorus x2)

Solo: 1st Guitar
e|---------------------------------|
B|---------------------------------|
G|---------------------------------|
D|---------------------------------|
A|-3333333-------------------------|
E|--------0000000-1111111-33333333-|
pm ................................

 (2nd Guitar Comes In W/ 1st Guitar Still Playing)
e|------------------------------------|
B|------------------------------------|
G|--55555555/999\55/101010\55/77777---|
D|--xxxxxxxx/xxx\xx/x-x-x-\xx/xxxxx---| X 4
A|--33333333/777\33/8-8-8-\33/55555---|
E|------------------------------------|

(Pre-Chorus x2)
(Chorus x4-Intro Plays Along The 3rd Time The Chorus Is Played)

End On
e|----|
B|----|
G|-5~-|
D|-5~-|
A|-3~-|
E|----|

Thanks To Blink For This Great Song
[ Tab from: http://www.guitaretab.com/b/blink-182/26062.html ]
Related for First Date tab
First Date chords by Blink 182