Song name
# A B C D E F G H I J K L M N O P Q R S T U V W X Y Z

Blink 182 - Untitled tab

Intro : x2
| -------------------- |
| -------------------- |
| --4*--4*------------ |
| --4*--4*--2*--4*---- |
| --2*--2*--2*--4*---- |
| ----------0*--2*---- |

Verse : x2
| ---------------------------- |
| ---------------------------- |
| --4*----------4*------------ |
| --4*--2*--4*--4*--2*--4*---- |
| --2*--2*--4*--2*--2*--4*---- |
| ------0*--2*------0*--2*---- |

Chorus : x2
| --------------------------------------- |
| --------------------------------------- |
| --4*--8>-9--9>-8>-9--4>-6>-3--3>-4--4-- |
| --4*--8>-9--9>-8>-9--4>-6>-3--3>-4--4-- |
| --2*--6>-7--7>-6>-7--2>-4>-1--1>-2--2-- |
| --------------------------------------- |

then play after the chorus : once
| ---------- |
| ---------- |
| --3*------ |
| --3*--2*-- |
| --1*--2*-- |
| ------0*-- |

then :
| ------------------------ |
| ------------------------ |
| --4*----------9*--3*---- |
| --4*--2*--4*--9*--3*---- |
| --2*--2*--4*--7*--1*---- |
| ------0*--2*------------ |

Verse : x2
| ---------------------------- |
| ---------------------------- |
| --4*----------4*------------ |
| --4*--2*--4*--4*--2*--4*---- |
| --2*--2*--4*--2*--2*--4*---- |
| ------0*--2*------0*--2*---- |

Chorus : x2
| --------------------------------------- |
| --------------------------------------- |
| --4*--8>-9--9>-8>-9--4>-6>-3--3>-4--4-- |
| --4*--8>-9--9>-8>-9--4>-6>-3--3>-4--4-- |
| --2*--6>-7--7>-6>-7--2>-4>-1--1>-2--2-- |
| --------------------------------------- |

Bridge : x8
| --------------------- |
| --------------------- |
| --------------------- |
| -----2--4----4--2---- |
| --2---------------5-- |
| --------------------- |

After chorus play this note alot
| ----- |
| ----- |
| ----- |
| ----- |
| --2-- |
| ----- |

interlude : "it not a change of pace"
| ------------------------------------------------------------- |-------------- |
| ------------------------------------------------------------- |-------------- |
| --4*--8>-9*--9>-8>-9*------6>-3*--3>-4*--4*--4*--8*--9*------ |--4*---------- |
| --4*--8>-9*--9>-8>-9*--4*--6>-3*--3>-4*--4*--4*--8*--9*-(x1)- |--4*--4*-(x4)- |
| --2*--6>-7*--7>-6>-7*--4*--4>-1*--1>-2*--2*--2*--6*--7*------ |--2*--4*------ |
| -----------------------2*------------------------------------ |------2*------ |

End on
| ----- |
| ----- |
| --4-- |
| --4-- |
| --2-- |
| ----- |
Tap to rate this tab
# A B C D E F G H I J K L M N O P Q R S T U V W X Y Z