Song name
# A B C D E F G H I J K L M N O P Q R S T U V W X Y Z

Blink 182 - Adams Song Piano tab

this is the piano part for adam's song by blink 182.


e-----------------------------------------------------------
b-15--17------15-17-15--20-19-17-15----15-17--------15-17-15
g---------14------------------------14-------14--14---------
d-----------------------------------------------------------
a-----------------------------------------------------------
e-----------------------------------------------------------

e--------17--------------------
b-19-20------------------------
g------------------------------
d------------------------------
a------------------------------
e------------------------------

enjoy
Tap to rate this tab
 
# A B C D E F G H I J K L M N O P Q R S T U V W X Y Z