Song name
# A B C D E F G H I J K L M N O P Q R S T U V W X Y Z

Blitzkid - Bloody Valentine tab

FROM: BLITZKID
tabbed by spencer weatherbe lindsy-spencer@hotmail.com

this is my version of the song pretty simple fun to play.


verse:1 play 2 times
|------------------------------------------------|
|------------------------------------------------|
|------------------------------------------------|
|-8-8-8-8-8--------------------------------------|
|-6-6-6-6-6-8-8-8-8-----6-6-6-6-6---8-8-8-8-8-8--|
|-----------6-6-6-6-6---4-4-4-4-4---6-6-6-6-6-6--|                 bridge:play 2 times 
|-------------------------------------|
|-------------------------------------|
|-------------------------------------|
|-------------------------------------|
|-6-6-6-6-6--8-8-8-8-8-8--------------|
|-4-4-4-4-4--6-6-6-6-6-6--------------|
chorus:
|----------------------------------------------|
|----------------------------------------------|
|----------------------------------------------|
|-8-8-8-8-8------------------------------------|
|-6-6-6-6-6--8-8-8-8-8--6-6-6-6-6---8-8-8-8-8--|
|------------6-6-6-6-6--4-4-4-4-4---6-6-6-6-6--|
verse 2: repeat verse 1 to chorus

thats pretty much it

Tap to rate this tab
# A B C D E F G H I J K L M N O P Q R S T U V W X Y Z