Song name
# A B C D E F G H I J K L M N O P Q R S T U V W X Y Z

Blitzkid - Midnight Mile tab

Midnight Mile by Blitzkid
Standard Tuning EADGBe
Tabbed by "The Muddman" Jovan Sanchez

Such a great song. If i ever get time ill try and 
add the lyrics to this tab as well as mi other ones.
Try not to drop your pick...

Long Live The Horror!!! 

INTRO

|---------------------------------------------|
|---------------------------------------------|
|--8-88888--8-888--6-5--55555-----------------|
|--8-88888--8-888--6-5--55555--6-66666--------|x3
|--6-66666--6-666--4-3--33333--6-66666--------|
|------------------------------4-44444--------|


|---------------------------------------------|
|---------------------------------------------|
|---------------------------------------------|
|--8-88888--8-88888--6-66666--11111111--------|
|--8-88888--8-88888--6-66666--11111111--------|
|--6-66666--6-66666--4-66666---9-9-9-9--------|


VERSE


|---------------------------------------------|
|---------------------------------------------|
|--8-888--5-----------------------------------|x8
|--8-888--5-6---------------------------------|
|--6-666--3-6---------------------------------|
|-----------4---------------------------------|


CHORUS


|---------------------------------------------|
|---------------------------------------------|
|---------------------------8-88888-----------|
|--10-1010101010---6-66666--8-88888--8-88888--|x2
|--10-1010101010---6-66666--6-66666--8-88888--|
|---8--8-8-8-8-8---4-44444-----------6-66666--|


|---------------------------------------------|
|---------------------------------------------|
|--8-888--5-----------------------------------|x12
|--8-888--5-6---------------------------------|
|--6-666--3-6---------------------------------|
|-----------4---------------------------------|


|---------------------------------------------|
|---------------------------------------------|
|---------------------------8-88888-----------|
|--10-1010101010---6-66666--8-88888--8-88888--|x2
|--10-1010101010---6-66666--6-66666--8-88888--|
|---8--8-8-8-8-8---4-44444-----------6-66666--|


|---------------------------------------------|
|---------------------------------------------|
|--8-888--5-----------------------------------|x8
|--8-888--5-6---------------------------------|
|--6-666--3-6---------------------------------|
|-----------4---------------------------------|


BRIDGE


|---------------------------------------------|
|---------------------------------------------|
|--88888888--3333-----------------------------|
|--88888888--3333--6666-----------------------|x4
|--66666666--5555--6666-----------------------|
|------------------4444-----------------------|


|---------------------------------------------|
|---------------------------------------------|
|--8-8888--5----------------------------------|
|--8-8888--5-6--------------------------------|x8
|--6-6666--3-6--------------------------------|
|------------4--------------------------------|


OUTRO


|---------------------------------------------|
|---------------------------------------------|
|---------------------------------------------|
|--8----6--6--66\7--8-------------------------|x3
|--8----6--6--66\7--8-------------------------|
|--6----4--4--44\5--6-------------------------|


|---------------------------------------------|
|---------------------------------------------|
|--------8------------------------------------|
|--6--8--8------------------------------------|
|--6--8--6------------------------------------|
|--4--6---------------------------------------|


\ = Slide
Tap to rate this tab
 
# A B C D E F G H I J K L M N O P Q R S T U V W X Y Z