Song name
# A B C D E F G H I J K L M N O P Q R S T U V W X Y Z

Blitzkid - Pumpkinpatch Murders tab

The Pumpkin Patch Murders
BLITZKID
LET FLOWERS DIE
Tabber: Gilby "F'N" Deviant

 Intro/Outro riff
    B      D Db B   BbB  G FbE  A
  e --------------------------: ----|
  B --------------------------: ----|
  G --------------------------: ----|
  D 4-4-44-7-66-4-4-----------: 2---|
  A 2-2-22-5-44-2-2-1-2--5-4-2: 0---|
  E ---------------------3-2-0: ----|
                      * pinch harmonic

 Verse
    B   G   D   A
  e ----------------:
  B ----------------:
  G ----------------:
  D 4-------7-------:
  A 2---5---5---7---:
  E ----3-------5---:

 Verse Riff
    B       G       D       A
  e --------------------------------|
  B --------------------------------|
  G 4 6 7 9 7 6 7 9 11  11  9   9
  D --------------------------------
  A 2 4 5 7 5 4 5 7 9   9   7   7
  E --------------------------------

 Pre-Chorus
    G  F#   B       G   F#  G   A
  e --------------------------------:
  B --------------------------------:
  G --------------------------------:
  D --------4-----------------------:
  A 5---4---2-------5---4---5---7---:
  E 3---2-----------3---2---3---5---:

 Chorus
    D   F#  G   A
  e ----------------:
  B ----------------:
  G ----------------:
  D 7---------------:
  A 5---4---5---7---:
  E ----2---3---5---:

The Pumpkin Patch Murders
BLITZKID
By DrFaustus
sup gools & TxBx
Tune one Whole Step Down to d-g-c-f-a-d to Match Recording
Off of Let Flowers Die

4 tIMES                 *Pinched Harmonic    HI HAT COUNT
-----------------------------------|----------------------|
-----------------------------------|----------------------|
-4-4-44--7--66-44--3--(4)----------|-2(2------)-----------|
-4-4-44--7--66-44--3--(4)---5--4--2|-2(2------)-----------|
-2-2-22--5--44-22--1---2*---5--4--2|-0(0------)-----------|
----------------------------3--2--0|-----------x--x--x--x-|
 B B BB  D  C#  B  A#       G  F# E  A


riff1  6X  OCTAVE RUN ON THE 2ND  LYRICS ON THE 4RTH
-----------------|------------------|---------------------|
-----------------|------------------|---------------------|
-----------------|------------------|---------------------|
4-4-4-4----------|-7-7-7-7----------|---------------------|
4-4-4-4--5-5-5-5-|-7-7-7-7--7-7-7-7-|---------------------|
2-2-2-2--5-5-5-5-|-5-5-5-5--7-7-7-7-|---------------------|
---------3-3-3-3-|----------5-5-5-5-|---------------------|
B B B B  G G G G  D D D D  A A A A


OCTAVE SOLO RUN
------------------|---------------------------------------|
------------------|---------------------------------------|
------------------|---------------------------------------|
4/6/7\9/7\6/7/9/11|-11-11-11--9(9----)--------------------|
------------------|---------------------------------------|
2/4/5\7/5\4/5/7/9-|-9--9--9---7(7----)--------------------|
------------------|---------------------------------------|

PRE-CHORUS
----------------|----------------|--------------------------------|
----------------|----------------|--------------------------------|
----------------|----------------|--------------------------------|
----------------|----------------|--------------------------------|
----------------|-4-4-4-4-4-4-4-4|--------------------------------|
5-5-5-5-4-4-4-4-|-2-2-2-2-2-2-2-2|5-5-5-5-4-4-4-4-5-5-5-5-5-5-5-5-|
3-3-3-3-2-2-2-2-|----------------|3-3-3-3-2-2-2-2-3-3-3-3-3-3-3-3-|

CHORUS
----------------|-----------------|-------------------------|
----------------|-----------------|-------------------------|
----------------|-----------------|-------------------------|
7-7-7-7---------|-----------------|-------------------------|
7-7-7-7-4-4-4-4-|-5-5-5-5-7-7-7-7-|-------------------------|
5-5-5-5-4-4-4-4-|-5-5-5-5-7-7-7-7-|-------------------------|
--------2-2-2-2-|-3-3-3-3-5-5-5-5-|-------------------------|
Tap to rate this tab
# A B C D E F G H I J K L M N O P Q R S T U V W X Y Z