Song name
# A B C D E F G H I J K L M N O P Q R S T U V W X Y Z

Blitzkid - Starlite Decay tab

Help us improve GuitareTab! Take a short survey!
|------------------------------------------------------------------------|
|------------------------------------------------------------------------|
|--------------------------------------------------------------------13--|
|--/11-11-10-11---11-10-11---11-10-11-13-11-13-15-15-13-11---15-13-15----|
|------------------------------------------------------------------------|
|------------------------------------------------------------------------|


                                  5x             4x
|-----------------------------|--------|----|---------|-------------|
|-----------------------------|--------|----|---------|-------------|
|--13-------------------13-13-|---13-13|----|-15-13-13|-15-13-15-13-|
|----15-13-15---15-13-15------|-15-----|-15-|---------|-------------|
|-----------------------------|--------|----|---------|-------------|
|-----------------------------|--------|----|---------|-------------|


     2x
|----------|------------------------------|
|----------|------------------------------|
|-18-17-13-|-13--13----------13--13-15~---|
|----------|---15------13-15---15---------|
|----------|------------------------------|
|----------|------------------------------|

Just throw in some sweet bends here n' there, and there ya go!


~Alex~


(Oh, and the best song on Five Cellars Below has to be "Bloodletting"... Just something 
that song...)
Related for Starlite Decay tab