Song name
# A B C D E F G H I J K L M N O P Q R S T U V W X Y Z

Blitzkid - Howling tab

Blitzkid - The Howling

By: skyturnedred@gmail.com

Tuning one-step down: DGCFAD


You can play this in Eb-tuning also,
but I like to tab all Blitzkid songs in D.


. = Palm-mute
x = dead notes

INTRO:
|-------------------------------------|
|-------------------------------------|
|-------------------------------------|
|---------------------------------6---|
|-4-333---4-333---4-333---4-333-4-4-4-|
|-2-111---2-111---2-111---2-111-2---2-|

|----------------------------------------------|
|----------------------------------------------|
|----------------------------------------------|
|-------xxxx-------xxxx-------xxxx---------6---|
|-4-333-xxxx-4-333-xxxx-4-333-xxxx-4-333-4-4-4-|
|-2-111-xxxx-2-111-xxxx-2-111-xxxx-2-111-2---2-|


VERSE:
|---------------------------------------|
|---------------------------------------|
|---------------------------------------|
|----------33333333------6666-----------|
|-66666666-11111111-4444-4444-6666666-4-|
|-44444444----------2222------4444444-2-|
                               ......
 "Can you hear them calling in the dark?
  A savage pack that grows hungry"

|--------------------------------------|
|--------------------------------------|
|--------------------------------------|
|----------33333333------6666----------|
|-66666666-11111111-4444-4444-66666666-|
|-44444444----------2222------44444444-|
                               ....
 "Half human half wolf beings ready to start
  Their frenzied killing spree"

PRE-CHORUS:
|-------------------------------------|
|-------------------------------------|
|-------------------------------------|
|-------------------------------------| 
|-44444444-66666666-44444444-66666666-|
|-22222222-44444444-22222222-44444444-|
 "The moon is full tonight,
  The hair stands on my neck something isn’t right"


CHORUS:
|-------------------------------------|
|-------------------------------------|
|-66666666----------33333333----------|
|-66666666-66666666-33333333-44444444-|
|-44444444-66666666-11111111-44444444-|
|----------44444444----------22222222-|
 "The howling echoes eerie through the air
  So listen people beware – Whoah oh oh"

|-------------------------------------|
|-------------------------------------|
|-66666666----------33333333----------|
|-66666666-66666666-33333333-44444444-|
|-44444444-66666666-11111111-44444444-|
|----------44444444----------22222222-|
 "These beasts of prey wanna take your life,
  When there’s howling on the hills someone dies."


Repeat VERSE "Cavernous lust brought by sick lyconthropy,
              They infest the innocent
              Half human half wolf beings needing fresh meat,
              Your flesh will be ripped to shreds"


Repeat PRE-CHORUS & CHORUS

Repeat INTRO, PRE-CHORUS & CHORUS


OUTRO:
|---------------------------------------|
|---------------------------------------|
|---------------------------------------|
|----------33333333------6666-----------|
|-66666666-11111111-4444-4444-6666666-4-|
|-44444444----------2222------4444444-2-|
                               ......
                    "Someone dies..."

|-------------------------------|
|-------------------------------|
|-------------------------------|
|----------33333333-----6-------|
|-66666666-11111111-4---4---6---|
|-44444444----------2-------4---|
                    "Someone dies..."

The End.
Tap to rate this tab
 
# A B C D E F G H I J K L M N O P Q R S T U V W X Y Z