Song name
# A B C D E F G H I J K L M N O P Q R S T U V W X Y Z

Blood Red Shoes - Cant Find The Door tab

This Song Is Really Easy To Play...You Only Have To Hit Some Notes...xD....Enjoy It And Tell Me If There's Something Wrong!!!

Intro
e|-----------------------|
B|-----------------------|
G|-----------------------|
D|-----------------------|
A|-----------------------|
E|2-2-2-0-0-0-2-2-0-2-3-0|

Verse
e|------------------|
B|------------------|
G|------------------|
D|------------------|
A|3-3--3-3--2-2--2-2|
E|------------------|

Pre-Chorus
e|---------------------------------------------------------|
B|---------------------------------------------------------|
G|---------------------------------------------------------|
D|---------------------------------------------------------|
A|---------------------------------------------------------|
E|111/999\111/999\111/999\111/999\111/999\111/999\111/999\1|

Chorus                                 Pre-Verse
e|-----------------------|             e|-----|
B|-----------------------|             B|-----|
G|-----------------------|             G|-----|
D|-----------------------|             D|-----|
A|-----------------------|             A|-----|
E|2-2-2-0-0-0-2-2-0-2-3-0|             E|2b(3)|

Bridge Intro
e|------------------------------|
B|------------------------------|
G|------------------------------|
D|------------------------------|
A|------------------------------|
E|2--2-2-2-2-2-2-2-3-3-3-3-3-3-3|

Bridge
e|-------------------------------|
B|-------------------------------|
G|-------------------------------|
D|-------------------------------|
A|-------------------------------|
E|2-2-2-2-2-2-2-2-2-3-3-3-3-3-3-3|

Outro
e|-------------------------|
B|-------------------------|
G|-------------------------|
D|-------------------------|
A|-------------------------|
E|2-2-2-0-0-0-2-2-0-2-3-0-2|

You Have To Play It In This Order:

Intro [x8]
Verse [x14]
Pre-Chorus [x1]
Chorus [x4]
Pre-Verse [x1]
Verse [x10]
Pre-Chorus [x1]
Chorus [x4]
Bridge Intro [x1]
Bridge [x7]
Chorus [x7]
Outro [x1]


b: bend
/ and \: slide up|down
Tap to rate this tab
# A B C D E F G H I J K L M N O P Q R S T U V W X Y Z