Song name
# A B C D E F G H I J K L M N O P Q R S T U V W X Y Z

Blood Red Throne - Come Death tab

Tuning: DGCFAD

h = Hammer on.
p = Pull off.
~ = Vibrato.
. = Palm mute.
/ = Slide up to/down to.
\ = Slide up/down from.

Gtr. 1 and 2 (x4)

|----------------------------------|----------------------------------|
|----------------------------------|----------------------------------|
|----------------------------------|----------------------------------|
|----------------------------------|--------------------555---555-----|
|-2323-5432--2323-5423--2323-5432--|-5555------------------444---444\-|
|-0101-3210--0101-3201--0101-3210--|-----7777-6666-3333---------------|
  .... ....  .... ....  .... ....    ........ .... .... ............  

Gtr. 1

|------------------------------|------------------------------|
|------------------------------|------------------------------|
|------------------------------|------------------------------|
|-6------5------6------5-------|-6------5------6------5-------|
|-4------3------4------3-------|-4------3------4------3-------|
|--0-0-0--0-0-0--0-0-0--0-000--|--0-0-0--0-0-0--0-0-0--0-0-0--|
   . . .  . . .  . . .  . ...     . . .  . . .  . . .  . . .

Gtr. 2

|------------------------------|------------------------------|
|------------------------------|------------------------------|
|------------------------------|------------------------------|
|-6----------------------------|------------------------------|
|-4----------------------------|------------------------------|
|------------------------------|------------------------------|

Gtr. 1 and 2 (x2)

|------------------------------|------------------------------|
|------------------------------|------------------------------|
|------------------------------|------------------------------|
|-6------5------6------5-------|-6------5------6------5-------|
|-4------3------4------3-------|-4------3------4------3-------|
|--0-0-0--0-0-0--0-0-0--0-000--|--0-0-0--0-0-0--0-0-0--0-000--|
   . . .  . . .  . . .  . ...     . . .  . . .  . . .  . ...

Gtr. 1 and 2

|----------------------------------------------|----------------|
|----------------------------------------------|----------------|
|----------------------------------------------|-------------7--|
|----------------------------------------------|--7-----7----7--|
|-5-----------------------------6--------------|--5-----5----5--|
|-3-33333333333-555555-66666666-4-44444444444--|---0-0---0-0----|
    ........... ...... ........   ...........      . .   . .

Gtr. 1 and 2

|----------------------------------------------|-------------------|
|----------------------------------------------|-------------------|
|----------------------------------------------|-------------------|
|----------------------------------------------|-------------------|
|-5-----------------------------6--------------|-------------------|
|-3-33333333333-555555-66666666-4-44444444444--|--766-766-766-766--|
    ........... ...... ........   ...........     ... ... ... ...

Gtr. 1 and 2

|----------------------------------------------|----------------|
|----------------------------------------------|----------------|
|----------------------------------------------|-------------7--|
|----------------------------------------------|--7-----7----7--|
|-5-----------------------------6--------------|--5-----5----5--|
|-3-33333333333-555555-66666666-4-44444444444--|---0-0---0-0----|
    ........... ...... ........   ...........      . .   . .

Gtr. 1 and 2

|----------------------------------------------|----------------|
|----------------------------------------------|----------------|
|----------------------------------------------|----------------|
|----------------------------------------------|----------------|
|-5-----------------------------6--------------|--9/7-9--8/6-8--|
|-3-33333333333-555555-66666666-4-44444444444--|--7/5-7--6/4-6--|
    ........... ...... ........   ...........

Gtr. 1 and 2

|------------------------------|------------------------------|
|------------------------------|------------------------------|
|------------------------------|------------------------------|
|-6------5------6------5-------|-6------5------6------5-------|
|-4------3------4------3-------|-4------3------4------3-------|
|--0-0-0--0-0-0--0-0-0--0-000--|--0-0-0--0-0-0--0-0-0--0-000--|
   . . .  . . .  . . .  . ...     . . .  . . .  . . .  . ...

Gtr. 1 and 2

|----------------------------------------------|----------------|
|----------------------------------------------|----------------|
|----------------------------------------------|-------------7--|
|----------------------------------------------|--7-----7----7--|
|-5-----------------------------6--------------|--5-----5----5--|
|-3-33333333333-555555-66666666-4-44444444444--|---0-0---0-0----|
    ........... ...... ........   ...........      . .   . .

Gtr. 1 and 2

|----------------------------------------------|-------------------|
|----------------------------------------------|-------------------|
|----------------------------------------------|-------------------|
|----------------------------------------------|-------------------|
|-5-----------------------------6--------------|-------------------|
|-3-33333333333-555555-66666666-4-44444444444--|--766-766-766-766--|
    ........... ...... ........   ...........     ... ... ... ...

Gtr. 1 and 2

|----------------------------------------------|----------------|
|----------------------------------------------|----------------|
|----------------------------------------------|-------------7--|
|----------------------------------------------|--7-----7----7--|
|-5-----------------------------6--------------|--5-----5----5--|
|-3-33333333333-555555-66666666-4-44444444444--|---0-0---0-0----|
    ........... ...... ........   ...........      . .   . .

Gtr. 1 and 2

|----------------------------------------------|----------------|
|----------------------------------------------|----------------|
|----------------------------------------------|----------------|
|----------------------------------------------|----------------|
|-5-----------------------------6--------------|--9/7-9--8/6-8--|
|-3-33333333333-555555-66666666-4-44444444444--|--7/5-7--6/4-6--|
    ........... ...... ........   ...........

Gtr. 1 and 2 (x2)

|------------------------------|------------------------------|
|------------------------------|------------------------------|
|------------------------------|------------------------------|
|-6------5------6------5-------|-6------5------6------5-------|
|-4------3------4------3-------|-4------3------4------3-------|
|--0-0-0--0-0-0--0-0-0--0-000--|--0-0-0--0-0-0--0-0-0--0-000--|
   . . .  . . .  . . .  . ...     . . .  . . .  . . .  . ...

Gtr. 1 and 2

|------------------|
|------------------|
|----------------3-|
|-6---5----3-----3-|
|-4---3----1-2-2-1-|
|--000-0-----0-0---|
   ... .     . .

Gtr. 1 (x2)

|-----------------------------------|-----------------------------------|
|-----------------------------------|-----------------------------------|
|---------------------------------1-|---------------------------------1-|
|-----------------2/3--2/3--1-----1-|-----------------2/3--2/3--1-----1-|
|-2---------------0/1--0/1--3-2-2-3-|-2---------------0/1--0/1--3-2-2-3-|
|-0-0000-0-0-0-0--------------0-0---|-0-0000-0-0-0-0--------------0-0---|
  . .... . . . .              . .     . .... . . . .              . .

Gtr. 2 (x2)

|-----------------------------------|-----------------------------------|
|-----------------------------------|-----------------------------------|
|-----------------------------------|---------------------------------1-|
|-----------------------------------|---------------------------1-----1-|
|-----------------------------------|---------------------------3-2-2-3-|
|-----------------------------------|-----------------------------0-0---|
                                                                  . .

Gtr. 1 and 2

|-----------------------------------|-----------------------------------|
|-----------------------------------|-----------------------------------|
|---------------------------------1-|---------------------------------1-|
|-----------------2/3--2/3--1-----1-|-----------------2/3--2/3--1-----1-|
|-2---------------0/1--0/1--3-2-2-3-|-2---------------0/1--0/1--3-2-2-3-|
|-0-0000-0-0-0-0--------------0-0---|-0-0000-0-0-0-0--------------0-0---|
  . .... . . . .              . .     . .... . . . .              . .

|-----------------------------------|-----------------------------------|
|-----------------------------------|-----------------------------------|
|---------------------------------1-|-----------------------------------|
|-----------------2/3--2/3--1-----1-|-----------------2/3--2/3--2-----3-|
|-2---------------0/1--0/1--3-2-2-3-|-2---------------0/1--0/1--0--4--1-|
|-0-0000-0-0-0-0--------------0-0---|-0-0000-0-0-0-0---------------2----|
  . .... . . . .              . .     . .... . . . .

Gtr. 1 and 2

|----------------------------------------------------------------------|
|----------------------------------------------------------------------|
|----------------------------------------------------------------------|
|----------------------------------------------------------------------|
|-444-444----------555-555----------5/4-5/4-----------5/4-5/4----------|
|-222-222-0-0-000--333-333-0-0-000--3/2-3/2--0-0-000--3/2-3/2--0-0-000-|
  ... ... . . ...  ... ... . . ...           . . ...           . . ...

Gtr. 1 and 2 (x2)


|-----------------------------------|-----------------------------------|
|-----------------------------------|-----------------------------------|
|-----------------------------------|-----------------------------------|
|-1-----1------------------2/3--2/3-|-1-----1------------------2/3--2/3-|
|-3-2-2-3---2--------------0/1--0/1-|-3-2-2-3---2--------------0/1--0/1-|
|---0-0-----0-0000-0-0-0-0----------|---0-0-----0-0000-0-0-0-0----------|
    . .     . .... . . . .              . .     . .... . . . .

Gtr. 1 and 2

|-------------|
|-------------|
|-2---------3-|
|-2----4----3-|
|-0----4----1-|
|------2------|


Gtr. 1 and 2 (x2)

|----------------------------------------------------------------------|
|----------------------------------------------------------------------|
|----------------------------------------------------------------------|
|----------------------------------------------------------------------|
|-444-444----------555-555----------5/4-5/4-----------5/4-5/4----------|
|-222-222-0-0-000--333-333-0-0-000--3/2-3/2--0-0-000--3/2-3/2--0-0-000-|
  ... ... . . ...  ... ... . . ...           . . ...           . . ...

Gtr. 1 and 2 (x4)

|---------------------|
|---------------------|
|-------5-------------|
|-2-----5-----6-----8-|
|-2-----3-----6-----8-|
|-0-----------4-----6-|


Solo


Gtr. 1

|----------------------------------------------------------------------------------
|----------------------------------------------------------------------------------
|----------------------------------------------------------------------11~-12--11~-
|-------------7-----9--7------------10--9--7---------12--10--9---------------------
|---7--9--10--------------10--9---------------10----------------12-----------------
|----------------------------------------------------------------------------------

---------------------------|
---------------12-13-12~---|
---11--12--14--------------|
---------------------------|
---------------------------|
---------------------------|

|-19-15h16p15---18--14h15p14----17--13h14p13----16--12h11p12------------------------------
|------------18--------------17--------------16--------------15--14h15p14-12-14--12h14p12-
|-----------------------------------------------------------------------------------------
|-----------------------------------------------------------------------------------------
|-----------------------------------------------------------------------------------------
|-----------------------------------------------------------------------------------------

------------------------------------|
---------------------------------17~|
16-15-15h16p15-12-14-12h14p12-11-16~|
------------------------------------|
------------------------------------|
------------------------------------|


Gtr. 2 (x4)

|---------------------|
|---------------------|
|---------------------|
|------5555-----------|
|-2222-3333-6666-8888-|
|-0000------4444-6666-|
  .... .... .... ....

Gtr. 1 and 2 (x2)

|------------------------------|------------------------------|
|------------------------------|------------------------------|
|------------------------------|------------------------------|
|-6------5------6------5-------|-6------5------6------5-------|
|-4------3------4------3-------|-4------3------4------3-------|
|--0-0-0--0-0-0--0-0-0--0-000--|--0-0-0--0-0-0--0-0-0--0-000--|
   . . .  . . .  . . .  . ...     . . .  . . .  . . .  . ...

Gtr. 1 and 2

|----------------------------------------------|----------------|
|----------------------------------------------|----------------|
|----------------------------------------------|-------------7--|
|----------------------------------------------|--7-----7----7--|
|-5-----------------------------6--------------|--5-----5----5--|
|-3-33333333333-555555-66666666-4-44444444444--|---0-0---0-0----|
    ........... ...... ........   ...........      . .   . .

Gtr. 1 and 2

|----------------------------------------------|-------------------|
|----------------------------------------------|-------------------|
|----------------------------------------------|-------------------|
|----------------------------------------------|-------------------|
|-5-----------------------------6--------------|-------------------|
|-3-33333333333-555555-66666666-4-44444444444--|--766-766-766-766--|
    ........... ...... ........   ...........     ... ... ... ...

Gtr. 1 and 2

|----------------------------------------------|----------------|
|----------------------------------------------|----------------|
|----------------------------------------------|-------------7--|
|----------------------------------------------|--7-----7----7--|
|-5-----------------------------6--------------|--5-----5----5--|
|-3-33333333333-555555-66666666-4-44444444444--|---0-0---0-0----|
    ........... ...... ........   ...........      . .   . .

Gtr. 1 and 2

|----------------------------------------------|----------------|
|----------------------------------------------|----------------|
|----------------------------------------------|----------------|
|----------------------------------------------|----------------|
|-5-----------------------------6--------------|--9/7-9--8/6-8--|
|-3-33333333333-555555-66666666-4-44444444444--|--7/5-7--6/4-6--|
    ........... ...... ........   ...........

Gtr. 1 and 2 (x4)

|---------------------|
|---------------------|
|-------5-------------|
|-2-----5-----6-----8-|
|-2-----3-----6-----8-|
|-0-----------4-----6-|

Gtr. 1 and 2 (x3)

|---------------------|
|---------------------|
|---------------------|
|---------------------|
|------3333-----------|
|-0000------4444-6666-|
  .... .... .... ....

Gtr. 1 and 2

|-------------------------|
|-------------------------|
|-------------------------|
|---------------------7/3-|
|------3333-----------7/3-|
|-0000------4444-6666-5/1-|
  .... .... .... ....
Tap to rate this tab
 
# A B C D E F G H I J K L M N O P Q R S T U V W X Y Z