Song name
# A B C D E F G H I J K L M N O P Q R S T U V W X Y Z

Blood Sweat And Tears - Shallow tab

shallow

drop D tuning(dadgbe)    x=finger mute on fret 1  ~=string bend
                        2x
D|------------------------|-x-x-x-1--x-x-x-1-1-3-4----|4x back and forth 
a|------------------------|-x-x-x-1--x-x-x-1-1-3-4----|with 2 guitars
d|--0-0-0-1-0-0-0-1-1-3-4-|-x-x-x-1--x-x-x-1-1-3-4----|
g|------------------------|---------------------------|
b|------------------------|---------------------------|
e|------------------------|---------------------------|

Guitar 1                  Guitar 2                     2x
D|--0-0-0-1-0-0-0-1-1-3~--|----------------------------|
a|------------------------|----------------------------|
d|------------------------|--0-0-0-1-0-0-0-3-4-5-------|
g|------------------------|----------------------------|
b|------------------------|----------------------------|
e|------------------------|----------------------------|
Tap to rate this tab
# A B C D E F G H I J K L M N O P Q R S T U V W X Y Z