Song name
# A B C D E F G H I J K L M N O P Q R S T U V W X Y Z

Bloodhound Gang - Boom tab

-----------------------------------------------------------
                Boom - Bloudhound Gang
-----------------------------------------------------------
Tabbed by: Chico-X-

e|---------------------------------------------------------|
B|---------------------------------------------------------|
G|---------------------------------------------------------|
D|---------9--------9-----9--------9--------9--8--7--------|
A|---------7--------7-----7--------7--------7--6--5--------|
E|---0--0-----0--0-----0-----0--0-----0--0-----------------|
     *  *     *  *     *     *  *     *  *

e|---------------------------------------------------------|
B|---------------------------------------------------------|
G|---------------------------------------------------------|
D|---------9--------9-----9--------9--------9--8--10-------|
A|---------7--------7-----7--------7--------7--6--8--------|
E|---0--0-----0--0-----0-----0--0-----0--0-----------------|
     *  *     *  *     *     *  *     *  *

Playing alternately!
* = palm muted

I think thats the best way to play that song.

************************************************************
Tap to rate this tab
# A B C D E F G H I J K L M N O P Q R S T U V W X Y Z