Song name
# A B C D E F G H I J K L M N O P Q R S T U V W X Y Z

Bloodhound Gang - Take The Long Way Home tab

Bloodhound Gang - Take The Long Way Home
Submitted By: gaza the gr8
EMail: gazagroove@hotmail.com

Tuning: Standard (E A D G B E)

GXXXX POSYYYYYYYYYYYYYYYYYYYYYYYYYY

INTRO   X2   this intro is trumpet or somethin so here it is on guitar:

E---0--0-------0-----0--------0----0--------0---2--2--0--------------------------
B----------3---------------3--------------3------------------3---------------------
G-------------------------------------------------------------------------------
D------------------------------------------------------------------------------
A------------------------------------------------------------------------------
E-------------------------------------------------------------------------------

E--0-0-----0----0------0---0-------0-----7--7--5--3---------------------------------
B--------3-----------3-----------3--------------------------------------------------------
G---------------------------------------------------------------------------------------
D----------------------------------------------------------------------------------------
A---------------------------------------------------------------------------------------
E---------------------------------------------------------------------------------------

VERSE:
Ha! No guitar in the verse

CHORUS /tricky!     This is palm muted

E---------------------------------------    0------1--------------0----------
B------------------------------------------------------3---------------------
G-------------------------------------------------------------------------------------------
D---5-5-5-5-5-5-5-5---9-9-9-9-9-9-9-9--2-2-----2-2----2-----2-2----2-2--------
A---5-5-5 5-5-5-5-5---9-9-9-9-9-9-9-9--2-2-----2-2----2-----2-2----2-2--------
E---3-3-3-3-3-3-3-3---7-7-7-7-7-7-7-7--0-0-----0-0----0-----0-0----0-0--------

then on the LOW E string: E--3--2---1----------------------------

E--------------------------------------------------------------------------------------
B---------------------------------------------------------------------------------------
G---------------------------------------------------------------------------------------
D--5-5-5-5-5-5-5-5----9----------------------------------------------
A--5-5-5-5-5-5-5-5----9-----------------------------------------------
E--3-3-3-3-3-3-3-3----7---------------------------------------------
                                           after u play the 9    he says take the long way 
                                                                    9     home
                                                                    7

PLAY INTRO AGAIN

THEN THE VERSE BUT THERE IS NO GUITAR

THEN THE CHORUS

THEN THE INTRO

THEN PARTS OF THE CHORUS I DONT FEEL LIKE TABBING!!!
   HOW ABOUT U JUST LISTEN TO THE *** SONG!!!!
Tap to rate this tab
 
# A B C D E F G H I J K L M N O P Q R S T U V W X Y Z