Song name
# A B C D E F G H I J K L M N O P Q R S T U V W X Y Z

Bloodsoaked - Suicide tab

--------------------------------------------------------------------------
	     SONG NAME: Suicide  - Band Name: Bloodsoaked
---------------------------------------------------------------------------
Tabbed by: Peter Hasselbrack
Email: phasselbrack@hotmail.com

Web Site: http://www.myspace.com/bloodsoakedband
Web Site: http://www.bloodsoaked.us

Tuning: D-G-C-F-A-D



(First Riff)
D|--------------------------------------------------------|
A|--------------------------------------------------------|
F|--------------------------------------------------------|
C|--------------------------------------------------------|
G|--------------------------------------------------------|
D|-0-0-0--0-0-0--3-3-3--2-2-2--0-0-0--1-1-1--3-3-3--2-2-2-|

(First Riff Continued)
D|---------------------------------------------|
A|---------------------------------------------|
F|---------------------------------------------|
C|---------------------------------------------|
G|-----------------------------3-2---2---------|
D|-0-0-0--0-0-0--3-3-3--2-2-2------3---3-2-1-2-|

(Second Riff)
D|--------------------------------------------------------------------|
A|--------------------------------------------------------------------|
F|--------------------------------------------------------------------|
C|--------------------------------------------------------------------|
G|-7-7-7-7-6-6-6-6----------------------------------------------------|
D|--------------------5-5-5-5-6-6-6-6-5-5-5-5-0-0-0-0-4-4-4-4-3-3-3-3-|

(Second Riff Continued)
D|--------------------------------------------------------------------|
A|--------------------------------------------------------------------|
F|--------------------------------------------------------------------|
C|--------------------------------------------------------------------|
G|-5-5-5-5-4-4-4-4----------------------------------------------------|
D|--------------------0-0-0-0-3-3-3-3-4-4-4-4-3-3-3-3-2-2-2-2-3-3-3-3-|

(Second Riff Continued: on the second and fourth times this riff is
played it ends like this)
D|--------------------------------------------------------------------|
A|--------------------------------------------------------------------|
F|--------------------------------------------------------------------|
C|--------------------------------------------------------------------|
G|-5-5-5-5-4-4-4-4-------------------------------------4--5-----------|
D|--------------------0-0-0-0-3-3-3-3-4-4-4-4-3-3-3-3--2--3-----------|

(Third Riff first 2 times played)
D|-----------------------------------------------------------------|
A|-----------------------------------------------------------------|
F|-----------------------------------------------------------------|
C|-----------------------------------------------------------------|
G|---------------------------------5-5-5-5-5-5-5-5-5-5-5-5-5-5-5-5-|
D|-2-2-2-2-2-2-2-2-2-2-2-2-2-2-2-2---------------------------------|

(Third Riff Continued first 2 times played)
D|-----------------------------------------------------------------|
A|-----------------------------------------------------------------|
F|-----------------------------------------------------------------|
C|-----------------------------------------------------------------|
G|-4-4-4-4-4-4-4-4-4-4-4-4-4-4-4-4---------------------------------|
D|---------------------------------5-5-5-5-5-5-5-5-7-7-7-7-7-7-7-7-|

(Third Riff, the third and fourth times played there is a harmoy
with two guitars. the tab below is showing both guitars)
D|-----------------------------------------------------------------|
A|-----------------------------------------------------------------|
F|---------------------------------7-7-7-7-7-7-7-7-7-7-7-7-7-7-7-7-|
C|-4-4-4-4-4-4-4-4-4-4-4-4-4-4-4-4---------------------------------|
G|---------------------------------5-5-5-5-5-5-5-5-5-5-5-5-5-5-5-5-|
D|-2-2-2-2-2-2-2-2-2-2-2-2-2-2-2-2---------------------------------|

(Third Riff Continued third and fourth times played)
D|-----------------------------------------------------------------|
A|-----------------------------------------------------------------|
F|-6-6-6-6-6-6-6-6-6-6-6-6-6-6-6-6---------------------------------|
C|---------------------------------7-7-7-7-7-7-7-7-9-9-9-9-9-9-9-9-|
G|-4-4-4-4-4-4-4-4-4-4-4-4-4-4-4-4---------------------------------|
D|---------------------------------5-5-5-5-5-5-5-5-7-7-7-7-7-7-7-7-|

The song goes back into the first riff, then the second and third
again.  After the third riff played the second time thru is the
fourth riff of the song.
(Fourth Riff)
D|--------------------------------------------------------|
A|--------------------------------------------------------|
F|--------------------------------------------------------|
C|--------------------------------------------------------|
G|-2-3---5-4-5-4----2-3---5-4-5-4----2-3---5-4-5-4--------|
D|-0-1---3-2-3-2----0-1---3-2-3-2----0-1---3-2-3-2--------|

(Fourth Riff Continued)
D|-----------------|
A|-----------------|
F|-----------------|
C|-----------------|
G|-2-4-5-4-2-4-5-4-|
D|-0-2-3-2-0-2-3-2-|

The song goes back int the 2nd riff and then back into the
third riff that has the little harmony solo. During the
harmony solo the rhythm riff is played straight thru with
not harmony rhythm unlike the first two times this riff
is played in the song.

(Third Riff is played 4 times at the end of the song)
D|-----------------------------------------------------------------|
A|-----------------------------------------------------------------|
F|-----------------------------------------------------------------|
C|-----------------------------------------------------------------|
G|---------------------------------5-5-5-5-5-5-5-5-5-5-5-5-5-5-5-5-|
D|-2-2-2-2-2-2-2-2-2-2-2-2-2-2-2-2---------------------------------|

(Third Riff Continued continued played 4 times)
D|-----------------------------------------------------------------|
A|-----------------------------------------------------------------|
F|-----------------------------------------------------------------|
C|-----------------------------------------------------------------|
G|-4-4-4-4-4-4-4-4-4-4-4-4-4-4-4-4---------------------------------|
D|---------------------------------5-5-5-5-5-5-5-5-7-7-7-7-7-7-7-7-|

The song goes back into the first riff of the song and is
played twice.

The End...(I did not include the harmony solo at the end of the
song.  If anyone really wants it tabbed out or if you have any
questions please email me as the web sites listed above.


| /  slide up
| \  slide down
| h  hammer-on
| p  pull-off
| ~  vibrato
| +  harmonic
| x  Mute note
===============================================================================
Tap to rate this tab
 
# A B C D E F G H I J K L M N O P Q R S T U V W X Y Z