Guitaretab - guitar tabs
Song name
# A B C D E F G H I J K L M N O P Q R S T U V W X Y Z

Blue Foundation - Eyes On Fire tab

This is my second time tabbing a song! It sounds pretty accurate to me! Let me 
know what you think! Thanks!

[Intro Instrumental]

e------------------------------------------------------------------|
B--------5--0-----3--1-------1-----------5--0-----3--1-----1-------|
G------------------------------------------------------------------|
D--2--2--------2----------2-----0--2--2--------2--------2-----0----|
A------------------------------------------------------------------|
E------------------------------------------------------------------|

e----------------------------------------------------------------------|
B--------5--0-----5--0--1-----1-----------5--0-----3--0--1-------------|
G----------------------------------------------------------------------|
D--2--2--------2-----------2-----0--2--2--------2-------------0--0--0--|
A----------------------------------------------------------------------|
E----------------------------------------------------------------------|


Hah-uh, Hah-uh, Hah-uh, Hah-uh, Hah-uh

e---------------------------------------------------------------------------------|
B--5[slide to 7]--8[slide to 5]--12[slide to 10]--10[slide to 8]--8[slide to 10]--|
G---------------------------------------------------------------------------------|
D---------------------------------------------------------------------------------|
A---------------------------------------------------------------------------------|
E---------------------------------------------------------------------------------|

Hah-uh, Hah-uh, Hah-uh, Hah-uh, Hah-uh

e----------------------------------------------------------------------|
B--5[slide to 7]--8[slide to 5]--12[slide to 10]--10[slide to 8]--8----|
G----------------------------------------------------------------------|
D----------------------------------------------------------------------|
A----------------------------------------------------------------------|
E----------------------------------------------------------------------|


Hah-uh, Hah-uh, Hah-uh, Hah-uh, Hah-uh

e---------------------------------------------------------------------------------|
B--5[slide to 7]--8[slide to 5]--12[slide to 10]--10[slide to 8]--8[slide to 10]--|
G---------------------------------------------------------------------------------|
D---------------------------------------------------------------------------------|
A---------------------------------------------------------------------------------|
E---------------------------------------------------------------------------------|

Hah-uh, Hah-uh, Hah-uh, Hah-uh, Hah-uh

e----------------------------------------------------------------------|
B--5[slide to 7]--8[slide to 5]--12[slide to 10]--10[slide to 8]--8----|
G----------------------------------------------------------------------|
D----------------------------------------------------------------------|
A----------------------------------------------------------------------|
E----------------------------------------------------------------------|

Iíll seek you out, fillet you alive. One more word and you wonít survive. 

e--0--0--7--5--3--5--7--0--------------------------------|
B------------------------------5--5--3--3--3--8--5--5----|
G--------------------------------------------------------|
D--------------------------------------------------------|
A--------------------------------------------------------|
E--------------------------------------------------------|

And Iím not scared of your stolen power. I see right through you any hour.

e--0--0--7--5--3--3--5--7--0--------------------------------|
B-------------------------------5--5--5--3--3--8--5--5------|
G-----------------------------------------------------------|
D-----------------------------------------------------------|
A-----------------------------------------------------------|
E-----------------------------------------------------------|

I won't soothe your pain. I won't ease your strain.

e--------------------------------------------|
B--8--10--12--5--8--------8--10--12--5--8----|
G--------------------------------------------|
D--------------------------------------------|
A--------------------------------------------|
E--------------------------------------------|

You'll be waiting in vain. I got nothing for you to gain.

e-------------------------------------------------------|
B--8--10--12--12--5--8----12--12--12--10--8--8--7--5----|
G-------------------------------------------------------|
D-------------------------------------------------------|
A-------------------------------------------------------|
E-------------------------------------------------------|

I'm taking it slow, feeding my flame. Shuffling the cards of your game.
[ Tab from: http://www.guitaretab.com/b/blue-foundation/183446.html ]
e--0--0--0--7--5--3--5--7--0------------------------------|
B-------------------------------5--5--5--5--3--3--8--5----|
G---------------------------------------------------------|
D---------------------------------------------------------|
A---------------------------------------------------------|
E---------------------------------------------------------|

And just in time, in the right place, suddenly I will play my ace.

e--0--0--7--5--3--5--7--0------------------------------|
B----------------------------5--5--5--5--3--3--8--5----|
G------------------------------------------------------|
D------------------------------------------------------|
A------------------------------------------------------|
E------------------------------------------------------|

I won't soothe your pain. I won't ease your strain.

e--------------------------------------------|
B--8--10--12--5--8--------8--10--12--5--8----|
G--------------------------------------------|
D--------------------------------------------|
A--------------------------------------------|
E--------------------------------------------|

You'll be waiting in vain. I got nothing for you to gain.

e-------------------------------------------------------|
B--8--10--12--12--5--8----12--12--12--10--8--8--7--5----|
G-------------------------------------------------------|
D-------------------------------------------------------|
A-------------------------------------------------------|
E-------------------------------------------------------|

Eyes on fire, your spine is ablaze. Feeling any foe with my gaze

e--0--7--5--3--3--5--7--0------------------------------|
B----------------------------5--5--5--5--3--3--8--5----|
G------------------------------------------------------|
D------------------------------------------------------|
A------------------------------------------------------|
E------------------------------------------------------|

And just in time, in the right place, steadily emerging from grace.

e--0--0--7--5--3--5--7--0------------------------------|
B----------------------------5--5--5--5--3--3--8--5----|
G------------------------------------------------------|
D------------------------------------------------------|
A------------------------------------------------------|
E------------------------------------------------------|

[Instrumental]

e--3--2--0----3--5--0-----3--2--0----3--5--0--------|
B----------------------3----------------------3-----|
G---------------------------------------------------| [Play twice]
D---------------------------------------------------|
A---------------------------------------------------|
E---------------------------------------------------|


Ah, Ah, Ah, Ah, Ah, Ah, Ah, Ah, Ah, Ah

e-------------------------------------|
B--5--3--5--3--0----------------------|
G-----------------2--0--2--4----------|
D-----------------------------2--[0]--| [0] is kind of optional
A-------------------------------------| 
E-------------------------------------|

Feeling any foe with my gaze,

e----------------------------|
B--5--5--5--5--3--3--8--5----|
G----------------------------|
D----------------------------|
A----------------------------|
E----------------------------|

Ah, Ah, Ah, Ah, Ah, Ah, Ah, Ah, Ah, Ah

e------------------------------------------|
B--5--3--5--3--0-----------------[0--5]----|
G-----------------2--0--2--4---------------|
D-----------------------------2------------| 
A------------------------------------------| 
E------------------------------------------|
[0--5] is also kind of optional, but is more noticable here


Steadily emerging with grace.

e----------------------------|
B--5--5--5--5--3--3--8--5----|
G----------------------------|
D----------------------------|
A----------------------------|
E----------------------------| 

Ah, Ah, Ah, Ah, Ah, Ah, Ah, Ah, Ah, Ah

e-------------------------------------|
B--5--3--5--3--0----------------------|
G-----------------2--0--2--4----------|
D-----------------------------2--[0]--| 
A-------------------------------------| 
E-------------------------------------|

Feeling any foe with my gaze,

e----------------------------|
B--5--5--5--5--3--3--8--5----|
G----------------------------|
D----------------------------|
A----------------------------|
E----------------------------|

Ah, Ah, Ah, Ah, Ah, Ah, Ah, Ah, Ah, Ah

e------------------------------------------|
B--5--3--5--3--0-----------------[0--5]----|
G-----------------2--0--2--4---------------|
D-----------------------------2------------| 
A------------------------------------------| 
E------------------------------------------|

Steadily emerging with grace.

e----------------------------|
B--5--5--5--5--3--3--8--5----|
G----------------------------|
D----------------------------|
A----------------------------|
E----------------------------| 
Related for Eyes On Fire tab