Song name
# A B C D E F G H I J K L M N O P Q R S T U V W X Y Z

Blue Oyster Cult - Pocket chords

Highlighted       Show chord diagrams
-------------------------------------------------------------------------------
			     POCKET - Blue Oyster Cult
-------------------------------------------------------------------------------


Tabbed by: Rob Bradbury
Email: robrules91 'at' hotmail.com

Tuning: Standard




INTRO:

	A				 D	G	

e|---------------------------------------2--------3-----|
B|---------------2-----------------------3--------3-----|
G|-----14\\------2--------12-h-14--------2--------------| x6
D|-----14\\------2--------12-h-14-----------------------|
A|------------------------------------------------2-----|
E|------------------------------------------------3-----|



VERSE 1:

A		   F

The blossoms are falling

	  G

Making a white path, across the grass

A		   F			G

Thunderheads are building, your skin tightens


And you wait for the flash


A	     F			   G

Across the street, the boys are laughing


As they was each other's cars

A		   F			G					   

They turn up the hip hop, white boys


Rappin with the black stars



Intro x2



CHORUS:

C		F		Am		D

Are you in the pocket of the moment in this particular second

C		   F		Am		D

Screwed into the socket of the moment in this particular second

C	F	Am	D

Where time cannot be reckoned

C	D	Am		F

Are you in the pocket of the moment



Intro x2



VERSE 2:


A	     F		      G		

Overhead a rumble, it's not thunder


It's a 747

A		F		  G

The postman grumbles, it's past eleven


The street is sixth, it should be seventh

A		F			G

You hear the chiming of the ice cream truck


Rambling like in a dream

A		F		G

I hear your footsteps behind me


The sweetest eddy in the stream




Intro x2



SOLO - Verse x4



CHORUS:

C		F		Am		D

Are you in the pocket of the moment in this particular second

C		   F		Am		D

Screwed into the socket of the moment in this particular second

C	F	Am	D

Where time cannot be reckoned

C	D	Am		F

Are you in the pocket of the moment



SOLO 2 - A D G x8



CHORUS:


C		F		Am		D

Are you in the pocket of the moment in this particular second

C		   F		Am		D

Screwed into the socket of the moment in this particular second

C	F	Am	D

Where time cannot be reckoned

C	D	Am		F

Are you in the pocket of the moment



Intro x4
Tap to rate this tab
 
# A B C D E F G H I J K L M N O P Q R S T U V W X Y Z