Song name
# A B C D E F G H I J K L M N O P Q R S T U V W X Y Z

Blues Brothers - Gimme Some Lovin tab

-------------------------------------------------------------------------------
			     GIMME SOME LOVIN’ – Blues Brothers
-------------------------------------------------------------------------------
Tabbed by: luco_kraze
Email:

Tuning: EADGBE

Intro

e|-------------------|
B|-------------------|
G|------5-7-7-7-7----| x 12
D|-------------------|
A|-------------------|
E|-------------------|


Verse 1

e|-------------------|
B|-------------------|
G|------5-7-7-7-7----| x 10
D|-------------------|
A|-------------------|
E|-------------------|

Pre-chorus Chords

    D   F   G  Bb
e|--5---1---3---6--------|
B|--7---1---3---6--------|
G|--7---2---4---7--------|
D|--7---3---5---8--------|
A|--5---3---5---8--------|
E|------1---3---6--------|

Chorus Chords

     D   G
e|---5---3-------------|
B|---7---3-------------|
G|---7---4-------------| x 4
D|---7---5-------------|
A|---5---5-------------|
E|-------3-------------|


e|-------------------|
B|-------------------|
G|-----7b—7b-5-------|
D|-------------------|
A|-------------------|
E|-------------------|

Verse 2

e|-------------------|
B|-------------------|
G|------5-7-7-7-7----| x 12
D|-------------------|
A|-------------------|
E|-------------------|

e|---------------------------------|
B|---------------------------------|
G|--7-5-7-5-7-----7-5-7-5-7--------| x 4
D|------------7~------------5-6-7--|
A|---------------------------------|
E|---------------------------------|

Pre-chorus Chords

    D   F   G  Bb
e|--5---1---3---6--------|
B|--7---1---3---6--------|
G|--7---2---4---7--------|
D|--7---3---5---8--------|
A|--5---3---5---8--------|
E|------1---3---6--------|


Chorus Chords

     D   G
e|---5---3-------------|
B|---7---3-------------|
G|---7---4-------------| x 4
D|---7---5-------------|
A|---5---5-------------|
E|-------3-------------|


Repeat Verse 2, Pre-chorus.

Do chorus 5 times.
Tap to rate this tab
 
# A B C D E F G H I J K L M N O P Q R S T U V W X Y Z