Guitaretab - guitar tabs
Song name
# A B C D E F G H I J K L M N O P Q R S T U V W X Y Z

Blues Brothers - Ghost Riders In The Sky tab

this is my first tab so cool it if it is slopy.

the whole song is played whith a pick.

e-----------------------------------------------------------|
b-----------------------------------------------------------|
g-----------------------------------------------------------|
d----------------------------------------------0-2-22---2---|
a----0-00-2-3-33-0-----------------0-00-2-3-33--------3-----|
e--0---------------3-33-0-3------0--------------------------|

[ Tab from: http://www.guitaretab.com/b/blues-brothers/147597.html ]
e--------------------------------------------------------|
b--------------------------------------------------------|
g------2-2-22--------------------------------------------|
d--2-2--------2-2-22-------------------------------------|
a--------------------3-0----------3-33----2/3-00---0-----|
e------------------------0-1-11-1----------------3-------|


e---------|
b---------|
g---------|
d--22-22--|             play over and over realy fast
a-0-------|             for as long as you want
e----0----|

this was by some one else, i just added a note in the right place o make it sound better
Related for Ghost Riders In The Sky tab
Ghost Riders In The Sky chords by Blues Brothers