Song name
# A B C D E F G H I J K L M N O P Q R S T U V W X Y Z

Blur - Good Song tab

saw this lead wasn't up as a regular tab, enjoy!

intro riff
C                      Em       F
e|--8-----5-----------|--------5-------------------|
B|--5-5-5-5---5-7/8---|--5-5-5-5-----8/10-8/9------|
G|--5-5-5-5-7-------7-|--5-5-5-5-7-7---------------|
D|--5-5-5-7-7-------5-|--5-----7-7-7---------------|
A|--------------------|----------------------------|
E|--------------------|----------------------------|

verse: (with riff)
C
waiting
Em    F        C
got no town to hide in     
     Em          F
the country's got a hold of my

  Am                             Bbmaj7
1. soul       T ...      V's     dead                     and there
2. ain't   no war  in my  head                 now  
e|--8-x--x----8--8--x--x--------|---------------8--8--------------|
B|-----------------------10-\-8-|-8-/-10--x--10-10-10--10-10-10-8-|
G|--5-x--x----5--5--x--x--------|---------------------------------|
D|---------7--------------7-\-5-|-5-/-7---x--7--7--7---7--7--7--5-|  X2
A|------------------------------|---------------------------------|
E|------------------------------|---------------------------------|

Gm7                            C (back to riff)
and you seem very beautiful to me 

verse 2:
sleeping, but my work's not done
i could be lying on an atom bomb

i'll take care
cause i know you'll be there 
you seem very beautiful to me


bridge/outro:
         C
it's the rest of your life
      Em     F
keeps rolling along
C    
picture in my pocket
Em     F
looks like you
         C
it's the rest of your life
      Em       F
keeps rolling, rolling along
Tap to rate this tab
 
# A B C D E F G H I J K L M N O P Q R S T U V W X Y Z